Depeche Mode

home > Depeche Mode

Breathe Tab

Depeche Mode

Difficulty: nolevelnolevel

tuner correct add songbook print version text version save to e-mail
chordsukulelecavacokeyboardtabbassdrumsharmonicsflute Guitar Pro
chords

Breathe

Year: 2001 - Album: Exciter

  		Verse:Pretty much..repeat some parts more than once 
|-----5--------3-----| 
|---5---8-7---3--6-5-| 
|-5----------3-------| 
|--------------------| 
|--------------------| 
|--------------------| 
 
Little thing played at the end of the chorus: 
|---0-----1-| 
|--1-----0--| 
|-2-----1---| 
|2-----3----| 
|-----------| 
|-----------| 
 
Chorus:(later) 
|---------------------------| 
|---------------------------| 
|-4x--4x---4x----4x----4x---| 
|5-7-7-10-10-12-12-14-14-15-| 
|---------------------------| 
|---------------------------| 
 
Bridge:i know it's wrong but 
|1--0-| 
|3--1-| 
|2--2-| 
|0--2-| 
|---0-| 
|-----| 
 
Outro:basicly picking the end chorus chords i'm too lazy to type it out maybe later 
 

	  

Search Paypal
auto scroll beats size up size down change color hide chords drawings
tab show chords e-chords YouTube Clip e-chords hide all tabs e-chords go to top tab