Deez Nuts

Band Of Brothers

Deez Nuts

tabs

by  AMAN_CLAUDINO

save to print version add songbook text version e-mail correct tuner
chordsukulelecavacokeyboardtabbassdrumsharmonicaflute Guitar Pro
close

there isn't a video lesson for this song

chords

Band Of Brothers

	  		 

Guitars: 
Acoustic 1 
Acoustic 2 
Electric 1 and 2 

0:00 - Acoustic Intro: 

Acoustic 1: 
d|-------------------------------------------------------------------------| 
A|-------------------------------------------------------------------------| 
F|-5/--7-7-7-7-7-7-7/-10-10-10-10-10-10-10-10--5-5-5-5-5-5-5-7-7-7-7-7-7---| 
C|-5/--7-7-7-7-7-7-7/-10-10-10-10-10-10-10-10--3-3-3-3-3-3-3-5-5-5-5-5-5---| 
G|-3/--5-5-5-5-5-5-5/-8--8--8--8--8--8--8--8---3-3-3-3-3-3-3-5-5-5-5-5-5---| 
C|---------------------------------------------3-3-3-3-3-3-3-5-5-5-5-5-5---| 

d|-----------------------------------------------------------------------------| 
A|-----------------------------------------------------------------------------| 
F|-5/--7-7-7-7-7-7-7/-10-10-10-10-10-10-10-10--7-7-7-7-7-7-7-10-10-10-10-10-10-| 
C|-5/--7-7-7-7-7-7-7/-10-10-10-10-10-10-10-10--5-5-5-5-5-5-5-8--8--8--8--8--8--| 
G|-3/--5-5-5-5-5-5-5/-8--8--8--8--8--8--8--8---5-5-5-5-5-5-5-8--8--8--8--8--8--| 
C|---------------------------------------------5-5-5-5-5-5-5-8--8--8--8--8--8--| 

Acoustic 1: 
d|-------------------------------------------------------------------------| 
A|-------------------------------------------------------------------------| 
F|-5/--7-7-7-7-7-7-7/-10-10-10-10-10-10-10-10--5-5-5-5-5-5-5-7-7-7-7-7-7---| 
C|-5/--7-7-7-7-7-7-7/-10-10-10-10-10-10-10-10--3-3-3-3-3-3-3-5-5-5-5-5-5---| 
G|-3/--5-5-5-5-5-5-5/-8--8--8--8--8--8--8--8---3-3-3-3-3-3-3-5-5-5-5-5-5---| 
C|---------------------------------------------3-3-3-3-3-3-3-5-5-5-5-5-5---| 

Acoustic 2: 

d|---------------------------------------------------------------------------| 
A|---------------------------------------------------------------------------| 
F|-------------7----------------10---------------------5---------------7-----| 
C|---------7------7--------10--------10--------------------------------------| 
G|----5--5---5--5-----8--8----8----8---------------3-------3-------5-------5-| 
C|--------------------------------------------3--3---3---3----5--5---5---5---| 

d|------------------------------------------------------------------------------| 
A|------------------------------------------------------------------------------| 
F|-5/--7-7-7-7-7-7-7/-10-10-10-10-10-10-10-10--7-7-7-7-7-7-7-10-10-10-10-10-10~-| 
C|-5/--7-7-7-7-7-7-7/-10-10-10-10-10-10-10-10--5-5-5-5-5-5-5-8--8--8--8--8--8~--| 
G|-3/--5-5-5-5-5-5-5/-8--8--8--8--8--8--8--8---5-5-5-5-5-5-5-8--8--8--8--8--8~--| 
C|---------------------------------------------5-5-5-5-5-5-5-8--8--8--8--8--8~--| 

Acoustic 2: 

d|---------------------------------------------------------------------------| 
A|---------------------------------------------------------------------------| 
F|-------------7----------------10-------------------------------------------| 
C|---------7------7--------10--------10--------------------------------------| 
G|----5--5---5--5-----8--8----8----8-----------------------------------------| 
C|---------------------------------------------------------------------------| 


0:23 - band starts playing 

Electric 1 and 2: 

d|------------------------------------------0~---------------------------------| 
A|------------------------------------------0~---------------------------------| 
F|--------------------5/-7------------------0~---------------------------------| 
C|-8-7-5-7-5-3-5-3-2--5/-7--0~--------------0~---------------------------------| 
G|-8-7-5-7-5-3-5-3-2--3/-5--0~--------------0~---------------------------------| 
C|-8-7-5-7-5-3-5-3-2--------0~-------------------------------------------------| 

0:31 - Intro Chorus 

d|---------------------------------------------------------------------------| 
A|---------------------------------------------------------------------------| 
F|---------------------------------------------------------------------------| 
C|--8-8--8-7-7--7-0-0--0-0-0--0-3-3--3-3-3--3-5-5--5-5-5--5------------------| 
G|--8-8--8-7-7--7-0-0--0-0-0--0-3-3--3-3-3--3-5-5--5-5-5--5------------------| 
C|--8-8--8-7-7--7-0-0--0-0-0--0-3-3--3-3-3--3-5-5--5-5-5--5------------------| 

d|---------------------------------------------------------------------------| 
A|---------------------------------------------------------------------------| 
F|---------------------------------------------------------------------------| 
C|--8-8--8-7-7--7-0pm-0pm--0pm-0~---0-3-3--3-3-3--3-5-5--5-5-5--5------------| 
G|--8-8--8-7-7--7-0pm-0pm--0pm-0~---0-3-3--3-3-3--3-5-5--5-5-5--5------------| 
C|--8-8--8-7-7--7-0pm-0pm--0pm-0~---0-3-3--3-3-3--3-5-5--5-5-5--5------------| 


d|---------------------------------------------------------------------------| 
A|---------------------------------------------------------------------------| 
F|---------------------------------------------------------------------------| 
C|--8-8--8-7-7--7-0-0--0-0-0--0-3-3--3-3-3--3-5-5--5-5-5--5------------------| 
G|--8-8--8-7-7--7-0-0--0-0-0--0-3-3--3-3-3--3-5-5--5-5-5--5------------------| 
C|--8-8--8-7-7--7-0-0--0-0-0--0-3-3--3-3-3--3-5-5--5-5-5--5------------------| 

d|---------------------------------------------------------------------------| 
A|---------------------------------------------------------------------------| 
F|--------------------------------------------------------------------5/-7-7-| 
C|--8-8--8-7-7--7-0pm-0pm--0pm-0~---0-3-3--3-3-3--3-8-7-5-7-5-3-5-3-2-5/-7-7-| 
G|--8-8--8-7-7--7-0pm-0pm--0pm-0~---0-3-3--3-3-3--3-8-7-5-7-5-3-5-3-2-3/-5-5-| 
C|--8-8--8-7-7--7-0pm-0pm--0pm-0~---0-3-3--3-3-3--3-8-7-5-7-5-3-5-3-2--------| 

0:54 - verse 1: all 0's are palm muted here 

d|---------------------------------------------------------------------------| 
A|---------------------------------------------------------------------------| 
F|----------7---------------7-----5/7----------------------------------------| 
C|----------7---------------7-----5/7--------------8--7---3/-5---------------| 
G|-0-0-0-0--5-0-0--0-0-0-0--5-0---3/5-0--0--0-0-0--8--7-0-3/-5---------------| 
C|-0-0-0-0----0-0--0-0-0-0----0-------0--0--0-0-0--8--7-0-3/-5---------------| x3 

d|---------------------------------------------------------------------------| 
A|---------------------------------------------------------------------------| 
F|----------7---------------7-----5/7---------------------5--7---------------| 
C|----------7---------------7-----5/7--------------8--7---5/-7---------------| 
G|-0-0-0-0--5-0-0--0-0-0-0--5-0---3/5-0--0--0-0-0--8--7-0-3/-5---------------| 
C|-0-0-0-0----0-0--0-0-0-0----0-------0--0--0-0-0--8--7-0--------------------| 

1:15 - Chorus 

d|-----------------------------------------------------------------------| 
A|-----------------------------------------------------------------------| 
F|---7-7-7-7-7-7-7/------------------------------------------------------| 
C|---7-7-7-7-7-7-7/-8--8--8--8--8--8--8--8---3-3-3-3-3-3-3-5-5-5-5-5-5---| 
G|---5-5-5-5-5-5-5/-8--8--8--8--8--8--8--8---3-3-3-3-3-3-3-5-5-5-5-5-5---| 
C|------------------8--8--8--8--8--8--8--8---3-3-3-3-3-3-3-5-5-5-5-5-5---| 


d|------------------------------------------------------------------------------| 
A|------------------------------------------------------------------------------| 
F|-5/--7-7-7-7-7-7-7/-10-10-10-10-10-10-10-10-----------------------------------| 
C|-5/--7-7-7-7-7-7-7/-10-10-10-10-10-10-10-10--5-5-5-5-5-5-5-8--8--8--8--8--8~--| 
G|-3/--5-5-5-5-5-5-5/-8--8--8--8--8--8--8--8---5-5-5-5-5-5-5-8--8--8--8--8--8~--| 
C|---------------------------------------------5-5-5-5-5-5-5-8--8--8--8--8--8~--| 

d|-----------------------------------------------------------------------| 
A|-----------------------------------------------------------------------| 
F|---7-7-7-7-7-7-7/------------------------------------------------------| 
C|---7-7-7-7-7-7-7/-8--8--8--8--8--8--8--8---3-3-3-3-3-3-3-5-5-5-5-5-5---| 
G|---5-5-5-5-5-5-5/-8--8--8--8--8--8--8--8---3-3-3-3-3-3-3-5-5-5-5-5-5---| 
C|------------------8--8--8--8--8--8--8--8---3-3-3-3-3-3-3-5-5-5-5-5-5---| 


d|------------------------------------------------------------------------------| 
A|------------------------------------------------------------------------------| 
F|-5/--7-7-7-7-7-7-7/-10-10-10-10-10-10-10-10-----------------------------------| 
C|-5/--7-7-7-7-7-7-7/-10-10-10-10-10-10-10-10--5-5-5-5-5-5-5--8-8-x-x-x-x-8-8---| 
G|-3/--5-5-5-5-5-5-5/-8--8--8--8--8--8--8--8---5-5-5-5-5-5-5--8-8-x-x-x-x-8-8---| 
C|---------------------------------------------5-5-5-5-5-5-5--8-8-x-x-x-x-8-8---| 

1:36 - verse 2 

d|---------------------------------------------------------------------------| 
A|---------------------------------------------------------------------------| 
F|----------7---------------7-----5/7----------------------------------------| 
C|----------7---------------7-----5/7--------------8--7---3/-5---------------| 
G|-0-0-0-0--5-0-0--0-0-0-0--5-0---3/5-0--0--0-0-0--8--7-0-3/-5---------------| 
C|-0-0-0-0----0-0--0-0-0-0----0-------0--0--0-0-0--8--7-0-3/-5---------------| x4 

1:58 - Panned Guitar 1 

d|------------------------------------------------| 
A|------------------------------------------------| 
F|----------7---------------7-----5/7-------------| 
C|----------7---------------7-----5/7-------------| 
G|-0-0-0-0--5-0-0--0-0-0-0--5-0---3/5-0--0--0-0-0-| 
C|-0-0-0-0----0-0--0-0-0-0----0-------0--0--0-0-0-| 

2:02 - Guitars 1 and 2 

d|-----------------------------------------------------------| 
A|-----------------------------------------------------------| 
F|-----------------------------------------------------------| 
C|-8--7---3/-5-----------------------------------------------| 
G|-8--7-0-3/-5-----------------------------------------------| 
C|-8--7-0-3/-5-----------------------------------------------| 

2:06 - "This is the time of our lives" 

d|---------------------------------------------------------| 
A|---------------------------------------------------------| 
F|----------7---------------7---------------------5/-7-----| 
C|----------7---------------7---8-7-5-7-5-3-5-3-2-5/-7-----| 
G|-0-0-0-0--5-0-0--0-0-0-0--5-0-8-7-5-7-5-3-5-3-2-3/-5-----| 
C|-0-0-0-0----0-0--0-0-0-0----0-8-7-5-7-5-3-5-3-2----------|x2 

d|-------------------------------------------------------------------------| 
A|-------------------------------------------------------------------------| 
F|----------7---------------7----------------------------3-3-3-3-3-3-3-3-3-| 
C|----------7---------------7---8-7-5-7-5-3-5-3-2-3-2-0--1-1-1-1-1-1-1-1-1-| 
G|-0-0-0-0--5-0-0--0-0-0-0--5-0-8-7-5-7-5-3-5-3-2-3-2-0--1-1-1-1-1-1-1-1-1-| 
C|-0-0-0-0----0-0--0-0-0-0----0-8-7-5-7-5-3-5-3-2-3-2-0--1-1-1-1-1-1-1-1-1-| 

d|---------------------------------------------------------------------------| 
A|---------------------------------------------------------------------------| 
F|-8-8-8-8-8-8-8-8-8-8-8-8-8-8-8---------------------------------------------| 
C|-6-6-6-6-6-6-6-6-6-6-6-6-6-6-6---------------------------------------------| 
G|-6-6-6-6-6-6-6-6-6-6-6-6-6-6-6---------------------------------------------| 
C|-6-6-6-6-6-6-6-6-6-6-6-6-6-6-6---------------------------------------------| 

2:27 - Chorus 

d|-----------------------------------------------------------------------| 
A|-----------------------------------------------------------------------| 
F|-5/7--7-7-7-7-7-7-7/---------------------------------------------------| 
C|-5/7--7-7-7-7-7-7-7/-8--8--8--8--8--8--8--8---3-3-3-3-3-3-3-5-5-5-5-5-5| 
G|-3/5--5-5-5-5-5-5-5/-8--8--8--8--8--8--8--8---3-3-3-3-3-3-3-5-5-5-5-5-5| 
C|---------------------8--8--8--8--8--8--8--8---3-3-3-3-3-3-3-5-5-5-5-5-5| 


d|------------------------------------------------------------------------------| 
A|------------------------------------------------------------------------------| 
F|-5/--7-7-7-7-7-7-7/-10-10-10-10-10-10-10-10-----------------------------------| 
C|-5/--7-7-7-7-7-7-7/-10-10-10-10-10-10-10-10--5-5-5-5-5-5-5-8--8--8--8--8--8~--| 
G|-3/--5-5-5-5-5-5-5/-8--8--8--8--8--8--8--8---5-5-5-5-5-5-5-8--8--8--8--8--8~--| 
C|---------------------------------------------5-5-5-5-5-5-5-8--8--8--8--8--8~--| 

d|-----------------------------------------------------------------------| 
A|-----------------------------------------------------------------------| 
F|---7-7-7-7-7-7-7/------------------------------------------------------| 
C|---7-7-7-7-7-7-7/-8--8--8--8--8--8--8--8---3-3-3-3-3-3-3-5-5-5-5-5-5---| 
G|---5-5-5-5-5-5-5/-8--8--8--8--8--8--8--8---3-3-3-3-3-3-3-5-5-5-5-5-5---| 
C|------------------8--8--8--8--8--8--8--8---3-3-3-3-3-3-3-5-5-5-5-5-5---| 


d|------------------------------------------------------------------------------| 
A|------------------------------------------------------------------------------| 
F|-5/--7-7-7-7-7-7-7/-10-10-10-10-10-10-10-10-----------------------------------| 
C|-5/--7-7-7-7-7-7-7/-10-10-10-10-10-10-10-10--5-5-5-5-5-5-5--8-8-x-x-x-x-8-8---| 
G|-3/--5-5-5-5-5-5-5/-8--8--8--8--8--8--8--8---5-5-5-5-5-5-5--8-8-x-x-x-x-8-8---| 
C|---------------------------------------------5-5-5-5-5-5-5--8-8-x-x-x-x-8-8---| 


d|---------------------------------------------------------------------------| 
A|---------------------------------------------------------------------------| 
F|-5/-7~---------------------------------------------------------------------| 
C|-5/-7~---------------------------------------------------------------------| 
G|-3/-5~---------------------------------------------------------------------| 
C|---------------------------------------------------------------------------| 

2:49 - Acoustic Outro: 

Acoustic 1: 
d|-------------------------------------------------------------------------| 
A|-------------------------------------------------------------------------| 
F|-5/--7-7-7-7-7-7-7/-10-10-10-10-10-10-10-10--5-5-5-5-5-5-5-7-7-7-7-7-7---| 
C|-5/--7-7-7-7-7-7-7/-10-10-10-10-10-10-10-10--3-3-3-3-3-3-3-5-5-5-5-5-5---| 
G|-3/--5-5-5-5-5-5-5/-8--8--8--8--8--8--8--8---3-3-3-3-3-3-3-5-5-5-5-5-5---| 
C|---------------------------------------------3-3-3-3-3-3-3-5-5-5-5-5-5---| 

d|-----------------------------------------------------------------------------| 
A|-----------------------------------------------------------------------------| 
F|-5/--7-7-7-7-7-7-7/-10-10-10-10-10-10-10-10--7-7-7-7-7-7-7-10-10-10-10-10-10-| 
C|-5/--7-7-7-7-7-7-7/-10-10-10-10-10-10-10-10--5-5-5-5-5-5-5-8--8--8--8--8--8--| 
G|-3/--5-5-5-5-5-5-5/-8--8--8--8--8--8--8--8---5-5-5-5-5-5-5-8--8--8--8--8--8--| 
C|---------------------------------------------5-5-5-5-5-5-5-8--8--8--8--8--8--| x2 



************************************ 
| pm  palm mute 
| /   slide up 
| \   slide down 
| h   hammer-on 
| p   pull-off 
| ~   let ring 
| +   harmonic 
| x   Mute note 
| b   Bend 
| pb  Pre-bend 
| br  Bend release 
| pbr Pre-bend release 
| brb Bend release bend 

************************************ 
		  

See also:

tabs Deep Purple - Demonds Eye tabs Deep Purple - Money Talks tabs Ira! - Eu Quero Sempre Mais (Com Pitty, intro) tabs Albert Hammond Jr - Holiday tabs Deep Purple - Smoke on the water (intro) tabs Deep Purple - Smoke on the Water (ver. 2)
e-chords

Other versions:

tabs Deez Nuts - Band Of Brothers
auto scroll beats size up size down change color hide chords drawings
tab show chords e-chords YouTube Clip e-chords hide all tabs e-chords go to top tab

share