Deepfield

Into The Flood

Deepfield

tabs

by  ANG-LETRA

save to print version add songbook text version e-mail correct tuner
chordsukulelecavacokeyboardtabbassdrumsharmonicaflute Guitar Pro
close

there isn't a video lesson for this song

chords

Into The Flood

	  		

Intro Chorus 
D|-------------------------------------------------------------------------| 
A|-------------------------------------------------------------------------| 
F|-------------------------------------------------------------------------| 
C|----4--------------0--------------4--------------7---------9-------------| 
G|----4--------------0--------------4--------------7---------9-------------| 
C|----4--------------0--------------4--------------7---------9-------------|   X2 

Chorus part 2 
D|---------------------------------------------------------------------| 
A|---------------------------------------------------------------------| 
F|---------------------------------------------------------------------| 
C|---------------------------------------------------------------------| 
G|----4----4--7---------4------4--7-------4-----4-----0------0--11-----| 
C|-------4-------------------4---------------4-----4------0------------| 

D|--------------------------------------------------------------------| 
A|--------------------------------------------------------------------| 
F|--------------------------------------------------------------------| 
C|--------------------------------------------------------------------| 
G|----0-----0--12------0------12-------4-----4--7--------4-----4--7---| 
C|-------0-----------------0--------------4-----------------4---------| 

Intro Bridge 
D|-----------------------------------------------------| 
A|-----------------------------------------------------| 
F|-----------------------------------------------------| 
C|---------------------7------9-----4-----7---9--------| 
G|----4----4-----------7------9-----4-----7---9--------| 
C|-------4----4--------7------9-----4-----7---9--------| 

Verse 
D|-----------------------------------------------------------------------| 
A|-----------------------------------------------------------------------| 
F|-----------------------------------------------------------------------| 
C|--------------16---------------14---------------16----14---------------| 
G|----------14---------------12---------------14--------12---------------| 
C|----14---------------12---------------14--------------12---------------| 

D|------------------------------------------------------------------| 
A|------------------------------------------------------------------| 
F|------------------------------------------------------------------| 
C|----16--16------16-----16------16------16-------16-----17--16-----| 
G|----14--14------14-----14------14------14-------14-----14--14-- --| 
C|----14--14------14-----14------14------14-------14-----14--14-----| 


D|----------------------------------------------------------------------| 
A|----------------------------------------------------------------------| 
F|----------------------------------------------------------------------| 
C|----14--14------14-----14------14-------------------------------------| 
G|----12--12------12-----12------12-------------------------------------| 
C|----12--12------12-----12------12-------------------------------------| 

D|------------------------------------------------------------------| 
A|------------------------------------------------------------------| 
F|------------------------------------------------------------------| 
C|----16--16------16-----16------16------16-------16-----17--16-----| 
G|----14--14------14-----14------14------14-------14-----14--14-- --| 
C|----14--14------14-----14------14------14-------14-----14--14-----| 

D|--------------------------------------------------------------------------| 
A|--------------------------------------------------------------------------| 
F|--------------------------------------------------------------------------| 
C|----14--------------------------------------------------------------------| 
G|----12--------------------------------------------------------------------| 
C|----12--------------------------------------------------------------------| 

Main Chorus 
D|-------------------------------------------------------------------------| 
A|-------------------------------------------------------------------------| 
F|-------------------------------------------------------------------------| 
C|----4--------------0--------------4--------------7---------9-------------| 
G|----4--------------0--------------4--------------7---------9-------------| 
C|----4--------------0--------------4--------------7---------9-------------| 

D|---------------------------------------------------------------------| 
A|---------------------------------------------------------------------| 
F|---------------------------------------------------------------------| 
C|---------------------------------------------------------------------| 
G|----4----4--7---------4------4--7-------4-----4-----0------0--11-----| 
C|-------4-------------------4-----------------4-----4------0----------| 

D|--------------------------------------------------------------------| 
A|--------------------------------------------------------------------| 
F|--------------------------------------------------------------------| 
C|--------------------------------------------------------------------| 
G|----0-----0--12------0------12-------4-----4--7--------4-----4--7---| 
C|--------0------------------0---------------4------------------4-----| 

D|------------------------------------------------------| 
A|------------------------------------------------------| 
F|------------------------------------------------------| 
C|---------------------7-------------9------------------| 
G|----4----4-----------7-------------9------------------| 
C|-------4----4--------7-------------9------------------| 


Fill 
D|-------------------------------------------------------------------| 
A|-------------------------------------------------------------------| 
F|---11-----11--9------11-----11--9----11----11-----------------14---| 
C|-------11-----------------11---------------11-----11-12-11-12------| 
G|-------------------------------------------------------------------| 
C|-------------------------------------------------------------------| 

D|----------------------------------------| 
A|----------------------------------------| 
F|------------14-----14----14-------------| 
C|---12-11-12-----------12----------------| 
G|----------------------------------------| 
C|----------------------------------------| 

Verse 


Chorus 2 
D|------------------------------------------------------------------------| 
A|------------------------------------------------------------------------| 
F|------------------------------------------------------------------------| 
C|------------------0--------------4--------------7---------9-------------| 
G|------------------0--------------4--------------7---------9-------------| 
C|------------------0--------------4--------------7---------9-------------| 

D|---------------------------------------------------------------| 
A|---------------------------------------------------------------| 
F|---------------------------------------------------------------| 
C|---------------------------------------------------------------| 
G|----4----4--7---------4----4--7-------4----4-----0----0--11----| 
C|-------4-----------------4---------------4---4------0----------| 

D|------------------------------------------------------------| 
A|------------------------------------------------------------| 
F|------------------------------------------------------------| 
C|------------------------------------------------------------| 
G|----0-----0--12------0----12------4---4--7-------4---4--7---| 
C|--------0--------------0------------4--------------4--------| 

D|------------------------------------------------------| 
A|------------------------------------------------------| 
F|------------------------------------------------------| 
C|---------------------7-------------9------------------| 
G|----4----4-----------7-------------9------------------| 
C|-------4----4--------7-------------9------------------| 

Bridge 
D|-----------------------------------------------------------------------| 
A|-----------------------------------------------------------------------| 
F|-------------------9-----------11--------------------------------------| 
C|----7--------------7------------9-------------4---------------4--------| 
G|----7--------------7------------9-------------4------4--2-4----4-2-----| 
C|----7-----------------------------------------4--------------------4---| 

D|------------------------------------------------------------------------| 
A|------------------------------------------------------------------------| 
F|-------------------9-----------11---------------------------------------| 
C|----7--------------7------------9-------------4--------2--------0-------| 
G|----7--------------7------------9-------------4--------2--------0-------| 
C|----7-----------------------------------------4--------2--------0-------| 

Fill 
D|--------------------------------------------------------------------| 
A|--------------------------------------------------------------------| 
F|---11-----11--9------11-----11--9----11----11-----------------14----| 
C|-------11-----------------11---------------11-----11-12-11-12-------| 
G|--------------------------------------------------------------------| 
C|--------------------------------------------------------------------| 

D|----------------------------------------------| 
A|----------------------------------------------| 
F|------------14-----14----14-------------------| 
C|---12-11-12-----------12----------------------| 
G|----------------------------------------------| 
C|----------------------------------------------|    X3 

D|-------------------------------------------------------| 
A|-------------------------------------------------------| 
F|---11----11--9------11----11--9----11----11------------| 
C|------11---------------11------------11-----11---------| 
G|-------------------------------------------------------| 
C|-------------------------------------------------------| 

D|------------------------------------------------------| 
A|---14-14-14-14-14-14-14-14-16-16-16-16-16-16-16-16----| 
F|---12-12-12-12-12-12-12-12-14-14-14-14-14-14-14-14----| 
C|------------------------------------------------------| 
G|------------------------------------------------------| 
C|------------------------------------------------------| 

D|-------------------------------------------------------| 
A|-------------------------------------------------------| 
F|---11----11--9------11----11--9----11----11------------| 
C|------11---------------11-------------11----11---------| 
G|-------------------------------------------------------| 
C|-------------------------------------------------------| 

D|------------------------------------------------------| 
A|---14-14-14-14-14-14-14-14-16-16-16-16-16-16-16-16----| 
F|---12-12-12-12-12-12-12-12-14-14-14-14-14-14-14-14----| 
C|------------------------------------------------------| 
G|------------------------------------------------------| 
C|------------------------------------------------------| 

Outro 
D|------------------------------------------------------------------| 
A|------------------------------------------------------------------| 
F|------------------------------------------------------------------| 
C|------------------------------------------------------------------| 
G|----4----4--7---------4-----4--7-------4-----4-----0----0--11-----| 
C|-------4-----------------4----------------4----4------0-----------| 

D|----------------------------------------------------------------| 
A|----------------------------------------------------------------| 
F|----------------------------------------------------------------| 
C|----------------------------------------------------------------| 
G|----0----0--12------0----12-------4-----4--7--------4----4--7---| 
C|-------0---------------0-------------4-----------------4--------| 

D|------------------------------------------------------| 
A|------------------------------------------------------| 
F|------------------------------------------------------| 
C|---------------------7-------------9------------------| 
G|----4----4-----------7-------------9------------------| 
C|-------4----4--------7-------------9------------------| 
		  

See also:

tabs Live - Lightning Crashes tabs R.E.M. - Losing my religion tabs Aerosmith - I Don't Want To Miss A Thing tabs Blue Oyster Cult - Dont Fear The Reaper tabs Cheap Trick - The Flame tabs Guns N' Roses - Estranged
e-chords

Other versions:

tabs Deepfield - Into The Flood
auto scroll beats size up size down change color hide chords drawings
tab show chords e-chords YouTube Clip e-chords hide all tabs e-chords go to top tab

share