Deep Purple

Smoke on the water (ver. 3)

Deep Purple

tabs

by  TAIHEI

save to print version add songbook text version e-mail correct tuner
chordsukulelecavacokeyboardtabbassdrumsharmonicaflute Guitar Pro
close

there isn't a video lesson for this song

chords

Smoke on the water (ver. 3)

	  		It's soooooooooooo easy to do!!!!it's cool!!! 


E-------1---3-------1--4-3----1---3---1-------------------- 
B---3-----------3-----------3-------------3---------------- 
G------------------------------------------------------ 
D------------------------------------------------------ 
A------------------------------------------------------ 
E------------------------------------------------------ 

E------1-1--1-1-1---11--3------------------------------------- 
B--3-------3-3-3---3--3-------3------------------------------- 
G------------------------------------------------------ 
D------------------------------------------------------ 
A------------------------------------------------------ 
E------------------------------------------------------ 

YOU CAN BASICLY DO THIS ON ANY TWO CHORDS 

		  

See also:

tabs Santana - Europa tabs Queen - Love of my Life tabs Dire Straits - Sultans of Swing (ao vivo BBC) tabs Eric Clapton - Layla tabs Deep Purple - Deep Purple - Smoke On The Water tabs White Stripes - the seven nation army
e-chords

Other versions:

tabs Deep Purple - Smoke On The Water tabs Jimi Hendrix Experience - Smoke On The Water tabs Eric Clapton - Smoke On The Water tabs Deep Purple - Smoke on the Water (correct) tabs Deep Purple - Smoke On The Water (Easy Intro) tabs Deep Purple - Smoke on the water (easy ver.)
auto scroll beats size up size down change color hide chords drawings
tab show chords e-chords YouTube Clip e-chords hide all tabs e-chords go to top tab

share