December Radio

Find You Waiting

December Radio

tabs

by  CHADERINSKY

save to print version add songbook text version e-mail correct tuner
chordsukulelecavacokeyboardtabbassdrumsharmonicaflute Guitar Pro
close

there isn't a video lesson for this song

chords

Find You Waiting

	  		First Verse: 

--------------17----14------------------------------------- 
-----------------------17---------------------------------- 
----------------------------------------------------------- 
-----------------------------------11-12-14-11------------- 
----------------------------------------------------------- 
----------------------------------------------------------- 
to the other side...     ...prea...kind 


There's other stuff throughout first verse hovering around  
these notes... 


Solo (after verse 3) 

-------------------------------------------14----21-21---- 
-------------13-------------------------------17---------- 
----------14----------------------------14---------------- 
-14-16-14-------14-17-14----------14-17------------------- 
-------------------------17-16---------------------------- 
-------------------------------17------------------------- 


----------------------------21-17------------------------- 
----------------------14-17------------------------------- 
----------------14-16------------------------------------- 
----------14-16------------------------------------------- 
----14-16------------------------------------------------- 
-17------------------------------------------------------- 

This is not exact, but it's darn close. 



Ending: 

--------17--14--------------------------------------------- 
--14-17-------17-14----14-17-14----------------14-17-14---- 
--------------------16----------16-14-------14----------~14 
--------------------------------------14-16---------------- 
----------------------------------------------------------- 
----------------------------------------------------------- 


----------------------------------------------------------- 
-15-14----------------------------------------------------- 
-------16-14----------------------------------------------- 
-------------16-14-----14---------------------------------- 
-------------------~16-14---------------------------------- 
--------------------------17------------------------------- 
		  

auto scroll beats size up size down change color hide chords drawings
tab show chords e-chords YouTube Clip e-chords hide all tabs e-chords go to top tab

share