Deathstars

Explode

Deathstars

tabs

by  TERCMORAES

save to print version add songbook text version e-mail correct tuner
chordsukulelecavacokeyboardtabbassdrumsharmonicaflute Guitar Pro
close

there isn't a video lesson for this song

chords

Explode

Key:  C More
Explode Key GG
Explode Key G#G#
Explode Key AA
Explode Key A#A#(one step down)
Explode Key BB(half step down)
Explode Key CC(original key)
Explode Key C#C#(half step up)
Explode Key DD(one step up)
Explode Key D#D#
Explode Key EE
Explode Key FF
Explode Key F#F#
	  		
Intro. 

0:22 

|-------------------------------------------------------| 
|-------------------------------------------------------| 
|-------------------------------------------------------| 
|-------------------------------------------------------| 
|---0-0-3-0-0-6-0-0-3-0-0-3-0-0-1-----------------------| 
|---0-0-3-0-0-6-0-0-3-0-0-3-0-0-1-----------------------| 
    * *   * *   * *   * *   * * 

0:26/0:27 

|-------------------------------------------------------| 
|-------------------------------------------------------| 
|-------------------------------------------------------| 
|-------------------------------------------------------| 
|---0-0-3-0-0-6-0-0-3-333-3-6-3-------------------------| 
|---0-0-3-0-0-6-0-0-3-----------------------------------| 
    * *   * *   * *   *** * * * 

0:29 
                                                             _ 
|-------------------------------------------------------|     | 
|-------------------------------------------------------|     | 
|-------------------------------------------------------|     | 
|-------------------------------------------------------| x3  | 
|---0-0-3-0-0-6-0-0-3-0-0-3-0-0-1-----------------------|     | 
|---0-0-3-0-0-6-0-0-3-0-0-3-0-0-1-----------------------|     | 
    * *   * *   * *   * *   * *                               | 
                                                              |  x2 
|-------------------------------------------------------|     | 
|-------------------------------------------------------|     | 
|-------------------------------------------------------|     | 
|-------------------------------------------------------|     | 
|---0-0-3-0-0-6-0-0-3-333-3-6-3-------------------------|     | 
|---0-0-3-0-0-6-0-0-3-----------------------------------|     | 
    * *   * *   * *   *** * * *                               | 
                                                             _| 



verse 1 
0:48 

|-------------------------------------------------------| 
|----------Nothing--------------------------------------| 
|-------------------------------------------------------| 
|-----------------Played--------------------------------| 
|-------------------------------------------------------| 
|------------------------Here---------------------------| 

1:08 

|-------------------------------------------------------| 
|-------------------------------------------------------| 
|-------------------------------------------------------| 
|--------------------6--6-------------------------------| 
|---0--0-------------3--3-------------------------------| 
|---0--0-------------3--3-------------------------------| 

|-------------------------------------------------------| 
|-------------------------------------------------------| 
|-------------------------------------------------------| 
|-------------------------------------------------------| 
|---8--8-------------5--5-------------------------------| 
|---8--8-------------5--5-------------------------------| 

|-------------------------------------------------------| 
|-------------------------------------------------------| 
|-------------------------------------------------------| 
|--------------------6--6-------------------------------| 
|---0--0-------------3--3-------------------------------| 
|---0--0-------------3--3-------------------------------| 

|-------------------------------------------------------| 
|-------------------------------------------------------| 
|-------------------------------------------------------| 
|-------------------------------------------------------| 
|---8--8-----------3-5\---------------------------------| 
|---8--8-----------3-5\---------------------------------| 


Chorus 

1:27 

|-------------------------------------------------------| 
|-------------------------------------------------------| 
|-------------------------------------------------------| 
|--5-5--5--5--7-8-8--8--8-------------------------3-----| 
|--3-3--3--3--5-6-6--6--6--6-8-8--8--8---1-3-3----1-5-6-| 
|--------------------------6-8-8--8--8---1-3-3--3---5-6-| 

|-------------------------------------------------------| 
|-------------------------------------------------------| 
|-------------------------------------------------------| 
|--5-5--5--5--7-8-8--8--8-----------------------3-----3-| 
|--3-3--3--3--5-6-6--6--6--6-8-8--8--8---1-3-3--1-5-1-1-| 
|--------------------------6-8-8--8--8---1-3-3----5-1---| 


Post-Chorus/Intro Riff 

1:46 
                                                             _ 
|-------------------------------------------------------|     | 
|-------------------------------------------------------|     | 
|-------------------------------------------------------|     | 
|-------------------------------------------------------| x3  | 
|---0-0-3-0-0-6-0-0-3-0-0-3-0-0-1-----------------------|     | 
|---0-0-3-0-0-6-0-0-3-0-0-3-0-0-1-----------------------|     | 
    * *   * *   * *   * *   * *                               | 
                                                              |  x2 
|-------------------------------------------------------|     | 
|-------------------------------------------------------|     | 
|-------------------------------------------------------|     | 
|-------------------------------------------------------|     | 
|---0-0-3-0-0-6-0-0-3-333-3-6-3-------------------------|     | 
|---0-0-3-0-0-6-0-0-3-----------------------------------|     | 
    * *   * *   * *   *** * * *                               | 
                                                             _| 


verse 2 
2:06 

|-------------------------------------------------------| 
|----------Nothing--------------------------------------| 
|-------------------------------------------------------| 
|-----------------Played--------------------------------| 
|-------------------------------------------------------| 
|------------------------Here---------------------------| 

2:25 

|-------------------------------------------------------| 
|-------------------------------------------------------| 
|-------------------------------------------------------| 
|--------------------6--6-------------------------------| 
|---0--0-------------3--3-------------------------------| 
|---0--0-------------3--3-------------------------------| 

|-------------------------------------------------------| 
|-------------------------------------------------------| 
|-------------------------------------------------------| 
|-------------------------------------------------------| 
|---8--8-------------5--5-------------------------------| 
|---8--8-------------5--5-------------------------------| 

|-------------------------------------------------------| 
|-------------------------------------------------------| 
|-------------------------------------------------------| 
|--------------------6--6-------------------------------| 
|---0--0-------------3--3-------------------------------| 
|---0--0-------------3--3-------------------------------| 

|-------------------------------------------------------| 
|-------------------------------------------------------| 
|-------------------------------------------------------| 
|-------------------------------------------------------| 
|---8--8-----------3-5\---------------------------------| 
|---8--8-----------3-5\---------------------------------| 


Chorus 

2:45 

|-------------------------------------------------------| 
|-------------------------------------------------------| 
|-------------------------------------------------------| 
|--5-5--5--5--7-8-8--8--8-------------------------3-----| 
|--3-3--3--3--5-6-6--6--6--6-8-8--8--8---1-3-3----1-5-6-| 
|--------------------------6-8-8--8--8---1-3-3--3---5-6-| 

|-------------------------------------------------------| 
|-------------------------------------------------------| 
|-------------------------------------------------------| 
|--5-5--5--5--7-8-8--8--8-----------------------3-----3-| 
|--3-3--3--3--5-6-6--6--6--6-8-8--8--8---1-3-3--1-5-1-1-| 
|--------------------------6-8-8--8--8---1-3-3----5-1---| 


Bridge 

3:04 

|-------------------------------------| 
|-------------------------------------| 
|-------------------------------------| 
|---5--5-----------5--5------3--------| 
|---3--3----4--4---3--3---1--1-4------| 
|-----------4--4----------1----4------| 

|-------------------------------------| 
|-------------------------------------| 
|-------------------------------------| 
|---5--5-----------5--5---------------| 
|---3--3----4--4---3--3---1--3-4------| 
|-----------4--4----------1--3-4------| 

|-------------------------------------| 
|-------------------------------------| 
|-------------------------------------| 
|---5--5-----------5--5------3--------| 
|---3--3----4--4---3--3---1--1-4------| 
|-----------4--4----------1----4------| 

|-------------------------------------| 
|-------------------------------------| 
|-------------------------------------| 
|---5--5------------------------------| 
|---3--3----4--4---3------------------| 
|-----------4--4---3------------------| 


Post-Bridge 

3:24 
                                                _ 
|--------------------------------------------|   | 
|--------------------------------------------|   | 
|--------------------------------------------|   | 
|--------------------------------------------|   | 
|---6-6--6--6--6--6---8-8--8--8--8--8--------|   | 
|---6-6--6--6--6--6---8-8--8--8--8--8--------|   | 
                                                x2 
|--------------------------------------------|   | 
|--------------------------------------------|   | 
|--------------------------------------------|   | 
|---5-5--5--5--5--5---5-5--5--5--5--5--5-----|   | 
|---3-3--3--3--3--3---3-3--3--3--3--3--5-----|   | 
|--------------------------------------5-----|   | 
                                                _| 

Chorus 

4:03 

|-------------------------------------------------------| 
|-------------------------------------------------------| 
|-------------------------------------------------------| 
|--5-5--5--5--7-8-8--8--8-------------------------3-----|  x3 
|--3-3--3--3--5-6-6--6--6--6-8-8--8--8---1-3-3----1-5-6-| 
|--------------------------6-8-8--8--8---1-3-3--3---5-6-| 

|-------------------------------------------------------| 
|-------------------------------------------------------| 
|-------------------------------------------------------| 
|--5-5--5--5--7-8-8--8--8-----------------------3-----3-| 
|--3-3--3--3--5-6-6--6--6--6-8-8--8--8---1-3-3--1-5-1-1-| 
|--------------------------6-8-8--8--8---1-3-3----5-1---| 



Outro 
4:41 
                                                              

|-------------------------------------------------------|      
|-------------------------------------------------------|      
|-------------------------------------------------------|      
|-------------------------------------------------------| x3   
|---0-0-3-0-0-6-0-0-3-0-0-3-0-0-1-----------------------|      
|---0-0-3-0-0-6-0-0-3-0-0-3-0-0-1-----------------------|      
    * *   * *   * *   * *   * *                                
                                                               
|-------------------------------------------------------|     
|-------------------------------------------------------|     
|-------------------------------------------------------|     
|-------------------------------------------------------|     
|---0-0-3-0-0-6-0-0-3-333-3-5-5-------------------------|     
|---0-0-3-0-0-6-0-0-3-----------------------------------|     
    * *   * *   * *   *** * * * 
		  

See also:

tabs Deep Purple - Demonds Eye tabs Deep Purple - Money Talks tabs Ira! - Eu Quero Sempre Mais (Com Pitty, intro) tabs Albert Hammond Jr - Holiday tabs Deep Purple - Smoke on the water (intro) tabs Deep Purple - Smoke on the Water (ver. 2)
e-chords

Other versions:

tabs Deathstars - Explode tabs Audioslave - Exploder
auto scroll beats size up size down change color hide chords drawings
tab show chords e-chords YouTube Clip e-chords hide all tabs e-chords go to top tab

share