Deaf Havana

Cassiopeia

Deaf Havana

tabs

by  ALEFFEDERICO

save to print version add songbook text version e-mail correct tuner
chordsukulelecavacokeyboardtabbassdrumsharmonicaflute Guitar Pro
close

there isn't a video lesson for this song

chords

Cassiopeia

	  		
Guitar 1: (Listen for picking rhythm)   
e|----------------------------------------------------------------------------- 
B|----------------------------------------------------------------------------- 
G|----------------------------------------------------------------------------- 
D|----------------------------------------------------------------------------- 
A|----------------5-2--5-2-----------------5-2--5-2-7-----------------5-2--5-7- 
D|--4-s14--4-s14-------------4-s14--4-s14---------------4-s14--4-s14----------- 

Guitar 2:  
      This is REALLY faint in the background. What i've written isnt 100%, but it is close. 
      There is delay and a shed of reverb so it's hard to tell exactly.                         

e|---------5p4---------------------------------------------------------- 
B|--5--5-------5s2------then the last time just play ----s7-7-7-7-7-7-7- 
G|-6--6--6-----------x3------------------------------------------------- 
D|---------------------------------------------------------------------- 
A|---------------------------------------------------------------------- 
D|---------------------------------------------------------------------- 


ISTRUMENTAL 'BRIDGE' PART: 

Guitar 1: 
e|--5--------5---9----------5-------5-7s9-- 
B|----7--5h7---7----x3--------7-5h7-------- 
G|----------------------------------------- 
D|----------------------------------------- 
A|----------------------------------------- 
D|----------------------------------------- 

Guitar 2: (Listen for strumming) 
e|-------------------------------- 
B|-------------------------------- 
G|-------------4----4------------- 
D|-4-2--4-2--0-4--0-4------------- 
A|-4-2--4-2--0-2--0-2------------- 
D|-4-2--4-2--0----0--------------- 


verse 2: 

Guitar 1: 
e|-----------5p4----------------------------- 
B|----5--5-------5s2------------------------- 
G|--6--6--6-----------x8--------------------- 
D|------------------------------------------- 
A|------------------------------------------- 
D|------------------------------------------- 

Guitar 2: Come in half way through 
e|-------------------------------------------  
B|------------------------------------------- 
G|--9---------------------------------------- 
D|--7-xlots (Palm muted less and less to build up) 
A|------------------------------------------- 
D|------------------------------------------- 


Chorus: 

Guitar 1: (Listen for strumming) 
e|-------------------------------------------  
B|------------------------------------------- 
G|-7----------------------------------------- 
D|-5--4--2----------------------------------- 
A|-5--4--2--x4------------------------------- 
D|----4--2----------------------------------- 

Guitar 2: 
         This is played like fast arpeggios (with delay. I guarantee it is there! 

e|------------------------4----4--4------4----4--4-------- 
B|----5---5--5-----------5---5---------5----5------------- 
G|---2---2-----x2-------------------------------------x4-- 
D|--0---0--0----------4----4----4----2----2----2---------- 
A|-------------------------------------------------------- 
D|-------------------------------------------------------- 


FILLER PART 

Guitar 1: Listen for the rhythm. 
e|---------------------4-------- 
B|------5------5---------------- 
G|----2----2-------------------- 
D|--4--------4------------------ 
A|------------------------------ 
D|------------------------------ 

Guitar 2: 
e|-------------------------------------------  
B|------------------------------------------- 
G|------------------------------------------- 
D|-4~---------------------------------------- 
A|-4~---------------------------------------- 
D|-4~---------------------------------------- 



verse 3: 

Guitar 1: (palm mute picked through the entire verse) 
e|----------------------------------------------- 
B|----------------------------------------------- 
G|-2---2---6-4-6-4---2---2---6-4-6-8-9----------- 
D|-0-4-0-4-4-2-4-2---0-4-0-4-4-2-4-6-7----------- 
A|---2---2-------------2---2--------------------- 
D|----------------------------------------------- 

Guitar 2: 
e|--5---5----9-----5---5---9---5---4-5----------- 
B|----7---7----x2----7---7-------7--------------- 
G|----------------------------------------------- 
D|----------------------------------------------- 
A|----------------------------------------------- 
D|----------------------------------------------- 


Chorus 2(slightly different) 

Guitar 1: (Listen for strumming) 
e|-------------------------------------------  
B|------------------------------------------- 
G|-7------------7-------7------7~------------ 
D|-7--4--2------7-4-6---7-4-2--5~------------ The final D chord is held into the breakdown 
A|-5--4--2--x2--5-4-6---5-4-2--5~------------ 
D|----4--2--------4-6-----4-2---------------- 

Guitar 2: 

e|------------------------4----4--4------4----4--4-------- 
B|----5---5--5-----------5---5---------5----5------------- 
G|---2---2-----x2-------------------------------------x2-- 
D|--0---0--0----------4----4----4----2----2----2---------- 
A|-------------------------------------------------------- 
D|-------------------------------------------------------- 

e|------------------------4----4--4------4----4--4-------- 
B|----5---5--5-----------5---5---------5----5------------- 
G|---2---2-----x2-------------------------------------x1-- 
D|--0---0--0----------4----4----4----6----6----6---------- 
A|-------------------------------------------------------- 
D|-------------------------------------------------------- 

e|------------------------4----4--4------4----4--4-------- 
B|----5---5--5-----------5---5---------5----5------------- 
G|---2---2-----x2-------------------------------------x1-- 
D|--0---0--0----------4----4----4----2----2----2---------- 
A|-------------------------------------------------------- 
D|-------------------------------------------------------- 

BREAKDOWN (SLOW BIT) 

Guitar 1 
e|-------------------------------------------------------- 
B|7*----7p5----5-----7-7p5-----5-------------------------- 
G|---------6p4---6---------6p4---6-4---------------------- 
D|-------------------------------------------------------- 
A|--------------------------------------------------------    *The notes marked with a star, you  
D|--------------------------------------------------------    have volume rolled down and then  
                                                              once it kicks in roll it back up. 
               

e|-14*-14p12-------12--------------12--------------------- 
B|-----------14p12---14--x2--12h14---14------------------- 
G|-------------------------------------11----------------- 
D|-------------------------------------------0-2---------- 
A|-------------------------------------------0-2---------- (with guitar 2) 
D|-------------------------------------------0-2---------- 


Guitar 2 *****                                                **** 
e|--------------------------------------------------------  This part is incredibly hard to tab 
B|--------------------------------------------------------  in a way that will make sense on  
G|--------------------------------------------------------  paper. The whole thing uses these two 
D|-0-4-0-4-0-4-0-4-0-2------------------------------------  chords, and then stabs on certain off 
A|-0-4-0-4-0-4-0-4-0-2------------------------------------  beats. You really need to listen to 
E|-0-4-0-4-0-4-0-4-0-2------------------------------------  the song to get the timing. Here are 
                                                            the two base chords used for both the 
                                                            muting and the stabs. 


FINAL Chorus/SOLO/BREAKDOWN 

Guitar 1: 

There are two passages used:  

  A:                                                                      A2: 
e|---------7h9-7h9---------7h9-7h9------------5h7-5h7--4h5-4h5-5p4-------|---- 
B|-5h7-5h7---------5h7-5h7------------5h7-5h7----------------------7p5---|s2--    ;| 
G|-----------------------------------------------------------------------|----     | 
D|-----------------------------------------------------------------------|----     | 
A|-----------------------------------------------------------------------|----     | 
D|-----------------------------------------------------------------------|----     | 
                                                                                   | 
  B:                                                                               |  
e|---------7h9-7h9---------7h9-7h9------------5h7-5h7--4h5-4h5-12h14-12h14---      | 
B|-5h7-5h7---------5h7-5h7------------5h7-5h7--------------------------------      | 
G|---------------------------------------------------------------------------      | 
D|---------------------------------------------------------------------------      | 
A|---------------------------------------------------------------------------      | 
D|---------------------------------------------------------------------------      | 
                                                                                   | 
The order is: A B A B B A2                                                         |  
                                                                                   | 
A2 is all of A, PLUS the last note added (which you end on)  ----------------------| 


Guitar 2:  
e|--------------------------------------------  
B|--------------------2~---------------------- 
G|-7------------------2~---------------------- 
D|-7-4-2--------------0~---------------------- 
A|-5-4-2-x6--end on:--0~---------------------- 
D|---4-2--------------0~----------------------  
		  

Full key step upFull key step up
Half key step upHalf key step up
Half key step downHalf key step down
Full key step downFull key step down
hide glossary

See also:

tabs Alt-J - Breezeblocks tabs Oasis - Be Here Now tabs Oasis - The Hindu Times tabs Oasis - Digsy's Dinner tabs Oasis - Stand By Me tabs Oasis - Up in the sky
e-chords

Other versions:

tabs Deaf Havana - Cassiopeia
auto scroll beats size up size down change color hide chords drawings
tab show chords e-chords YouTube Clip e-chords hide all tabs e-chords go to top tab

share