Dead Sara

Watherman

Dead Sara

tabs

by  SABRJOAO

save to print version add songbook text version e-mail correct tuner
chordsukulelecavacokeyboardtabbassdrumsharmonicaflute Guitar Pro
close

there isn't a video lesson for this song

chords

Watherman

	  		     n     n     n  V  n          n     n     n  V  n 
 
E|--------------------------|---------------------------| 
B|--------------------------|---------------------------| 
G|--------------------------|---------------------------| 
D|--------------------------|---------------------------| 
A|--0-0--0--10-12-0---------|--0-0--0--10-12-0----------| 
G|--------------------------|---------------------------| 
 

     n     n     n  V  n          n     n     n  V  n 
 
E|--------------------------|---------------------------| 
B|--------------------------|---------------------------| 
G|--------------------------|---------------------------| 
D|--------------------------|---------------------------| 
A|--0-0--0--10-12-0---------|--0-0--0--10-12-0----------| 
G|--------------------------|---------------------------| 
 

     n     n     n  V  n          n     n     n  V  n 
 
E|--------------------------|---------------------------| 
B|--------------------------|---------------------------| 
G|--------------------------|---------------------------| 
D|--------------------------|---------------------------| 
A|--0-0--0--10-12-0---------|--0-0--0--10-12-0----------| 
G|--------------------------|---------------------------| 
 

     n     n     n  V  n          n     n     n  V  n 
 
E|--------------------------|---------------------------| 
B|--------------------------|---------------------------| 
G|--------------------------|---------------------------| 
D|--------------------------|---------------------------| 
A|--0-0--0--10-12-0---------|--0-0--0--10-12-0----------| 
G|--------------------------|---------------------------| 
 

     n     n     n  V  n          n     n     n  V  n 
 
E|--------------------------|---------------------------| 
B|--------------------------|---------------------------| 
G|--------------------------|---------------------------| 
D|--------------------------|---------------------------| 
A|--0-0--0--10-12-0---------|--0-0--0--10-12-0----------| 
G|--------------------------|---------------------------| 
 

  n     n     n  V  n                     n     n     n  V  n 
 
---------------------------|----------|---------------------------| 
---------------------------|----------|---------------------------| 
---------------------------|--7s-17~--|---------------------------| 
---------------------------|--xs-x----|---------------------------| 
--0-0--0--10-12-0----------|--5s-15---|----0-0--0--10-12-0--------| 
---------------------------|----------|---------------------------| 
 

  n     n     n  V  n          n     n     n  V  n 
 
----------------------------|----------------------------|----------|-------| 
----------------------------|----------------------------|----------|-------| 
----------------------------|----------------------------|--7s-17~--|-------| 
----------------------------|----------------------------|--xs-x----|-------| 
--10----10------------------|--10----10------------------|--5s-15---|--10L--| 
--0-----0-----10-12-0-------|--0-----0-----10-12-0-------|----------|--0L---| 
 

                                                n  V     n 
 
-------|----------------------------|----------------------------|-------| 
-------|----------------------------|----------------------------|-------| 
-------|----------------------------|-----------3--3s----5-------|--5L---| 
-------|----------------------------|-----------x--x-----x-------|--xL---| 
--10~--|--10L---10------------------|-----------3--3s----5-------|--5L---| 
--0~---|--0L----0--0L-0L------------|--0L----0--x--x-----x-------|--xL---| 
 

                                                n  V     n 
 
-------|----------------------------|----------------------------|-------| 
-------|----------------------------|----------------------------|-------| 
--5~---|----------------------------|-----------3--3s----5-------|-------| 
--x~---|----------------------------|-----------x--x-----x-------|-------| 
--5~---|--10L---10------------------|-----------3--3s----5-------|-------| 
--x~---|--0L----0--0L-0-------------|--0L----0--x--x-----x-------|-------| 
 

                                                n  V 
 
-------|----------------------------|----------------------------| 
-------|----------------------------|----------------------------| 
-------|----------------------------|-----------3~-5~------------| 
-------|----------------------------|-----------x--x-------------| 
-------|----------------------------|-----------3~-5~------------| 
-------|----------------------------|-----------x--x-------------| 
 

                                                              n  V 
 
----------------|----------------|----------------|----------------------------| 
----------------|----------------|----------------|----------------------------| 
----------------|----------------|----------------|-----------3~-5~------------| 
----------------|----------------|----------------|-----------x--x-------------| 
----------------|----------------|----------------|-----------3~-5~------------| 
----------------|----------------|----------------|-----------x--x-------------| 
 


 
----------------------------|----------------------------| 
----------------------------|----------------------------| 
----------------------------|----------------------------| 
----------------------------|----------------------------| 
----------------------------|----------------------------| 
--xM-xM-xM-xM-xM-xM-xM-xM---|--xM-xM-xM-xM-xM-xM-xM-xM---| 
 

                                        n  V 
 
----------------------------|----------------------------| 
----------------------------|----------------------------| 
----------------------------|-----------3~-5~------------| 
----------------------------|-----------x--x-------------| 
----------------------------|-----------3~-5~------------| 
--xM-xM-xM-xM-xM-xM-xM-xM---|--xM-xM-xM-x--x-------------| 
 


 
----------------------------|----------------------------| 
----------------------------|----------------------------| 
----------------------------|----------------------------| 
----------------------------|----------------------------| 
----------------------------|----------------------------| 
--xM-xM-xM-xM-xM-xM-xM-xM---|--xM-xM-xM-xM-xM-xM-xM-xM---| 
 

                                        n  V 
 
----------------------------|----------------------------|-------|-------| 
----------------------------|----------------------------|-------|-------| 
----------------------------|-----------3~-5L------------|--5L---|--5L---| 
----------------------------|-----------x--xL------------|--xL---|--xL---| 
----------------------------|-----------3~-5L------------|--5L---|--5L---| 
--xM-xM-xM-xg-xM-xM-xM-xM---|--xM-xM----x--xL------------|--xL---|--x~---| 
 

          n  V                               n     n     n  V  n 
 
-------|----------|-------|-------|-------|----------------------------| 
-------|----------|-------|-------|-------|----------------------------| 
--5~---|--3~-5L---|--5L---|--5~---|-------|----------------------------| 
--x~---|--x--xL---|--xL---|--x----|-------|----------------------------| 
--5~---|--3~-5L---|--5L---|--5~---|-------|--10----10------------------| 
--x----|--x--xL---|--xL---|--x~---|-------|--0-----0-----10-12-0-------| 
 

  n     n     n  V  n          n     n     n  V  n 
 
----------------------------|----------------------------|----------| 
----------------------------|----------------------------|----------| 
----------------------------|----------------------------|--7s-17~--| 
----------------------------|----------------------------|--xs-x----| 
--10----10------------------|--10----10------------------|--5s-15---| 
--0-----0-----10-12-0-------|--0-----0-----10-12-0-------|----------| 
 

  n     n     n  V  n          n     n     n  V  n 
 
----------------------------|----------------------------| 
----------------------------|----------------------------| 
----------------------------|----------------------------| 
----------------------------|----------------------------| 
--10----10------------------|--10----10------------------| 
--0-----0-----10-12-0-------|--0-----0-----10-12-0-------| 
 

  n     n     n  V  n 
 
----------------------------|----------|----|----|----|----|----|----|----|----| 
----------------------------|----------|----|----|----|----|----|----|----|----| 
----------------------------|--7s-17~--|----|----|----|----|----|----|----|----| 
----------------------------|--xs-x----|----|----|----|----|----|----|----|----| 
--10----10------------------|--5s-15---|----|----|----|----|----|----|----|----| 
--0-----0-----10-12-0-------|----------|----|----|----|----|----|----|----|----| 
		  

See also:

tabs Michael Jackson - Beat it tabs Justin Timberlake - Rock Your Body tabs Eva Cassidy - Time After Time tabs Maroon 5 - She will be loved (intro) tabs Black Eyed Peas - Pump it intro tabs Michael Jackson - Smooth Criminal
e-chords

Other versions:

tabs Dead Sara - Watherman
auto scroll beats size up size down change color hide chords drawings
tab show chords e-chords YouTube Clip e-chords hide all tabs e-chords go to top tab

share