Dead Poetic

home > Dead Poetic

A Hoax To Live For Tab

Dead Poetic

Difficulty: nolevelnolevel

by aman%5Fclaudino

tuner correct add songbook print version text version save to e-mail
chordsukulelecavacokeyboardtabbassdrumsharmonicsflute Guitar Pro
chords

A Hoax To Live For

  		

Intro: x 2 
E------------------------------------------------------------| 
B------------------------------------------------------------| 
G-8888---8888-----------8888---8888-----------8888---8888----| 
D-8888---8888--(pause)--8888---8888--(pause)--8888---8888----| 
A-6666---6666-----------6666---6666-----------6666---6666----| 
D-6666---6666-----------6666---6666-----------6666---6666----| 

Verse: x2 
E------------------------------------------| 
B------------------------------------------| 
G-----------------88-88-88-88-88-88-88-88--| 
D-4-4-4-4-4-4-4-4-88-88-88-88-88-88-88-88--| 
A-4-4-4-4-4-4-4-4-66-66-66-66-66-66-66-66--| 
D-4-4-4-4-4-4-4-4-66-66-66-66-66-66-66-66--| 

Chorus: x2 

Guitar 1 
E------------------------------------------------------| 
B------------------------------------------------------| 
G------------------------------------------------------| 
D-44-44-44-44-1|1-1|1-1|1-1|1-44-44-44-44-66-66-44-44--| 
A-44-44-44-44-1|1-1|1-1|1-1|1-44-44-44-44-66-66-44-44--| 
D-44-44-44-44-1|1-1|1-1|1-1|1-44-44-44-44-66-66-44-44--| 

Guitar 2 
E------------------------------------------------------| 
B-7p6-6p4-----7p6-6p4------7p6-6p4----7p6-6p4-7-7-4-6--| 
G------------------------------------------------------| 
D------------------------------------------------------| 
A------------------------------------------------------| 
D------------------------------------------------------| 

Pre-Verse 
E------------------------------------| 
B------------------------------------| 
G-8888---8888-----------8888---8888--| 
D-8888---8888--(pause)--8888---8888--| 
A-6666---6666-----------6666---6666--| 
D-6666---6666-----------6666---6666--| 

Verse: x2 
E------------------------------------------| 
B------------------------------------------| 
G-----------------88-88-88-88-88-88-88-88--| 
D-4-4-4-4-4-4-4-4-88-88-88-88-88-88-88-88--| 
A-4-4-4-4-4-4-4-4-66-66-66-66-66-66-66-66--| 
D-4-4-4-4-4-4-4-4-66-66-66-66-66-66-66-66--| 

Fill: 
E-----| 
B-----| 
G-8~--| 
D-8~--| 
A-6~--| 
D-6~--| 

Drum Solo 

Chorus: x2 

Guitar 1 
E------------------------------------------------------| 
B------------------------------------------------------| 
G------------------------------------------------------| 
D-44-44-44-44-1|1-1|1-1|1-1|1-44-44-44-44-66-66-44-44--| 
A-44-44-44-44-1|1-1|1-1|1-1|1-44-44-44-44-66-66-44-44--| 
D-44-44-44-44-1|1-1|1-1|1-1|1-44-44-44-44-66-66-44-44--| 

Guitar 2 
E------------------------------------------------------| 
B-7p6-6p4-----7p6-6p4------7p6-6p4----7p6-6p4-7-7-4-6--| 
G------------------------------------------------------| 
D------------------------------------------------------| 
A------------------------------------------------------| 
D------------------------------------------------------| 

Bridge: x6 (Weird Effect) 
E-10-9-10-9-9V-10V/13V----10-9-10-9-9V-10V/13V--| 
B-----------------------------------------------| 
G-----------------------------------------------| 
D-----------------------------------------------| 
A-----------------------------------------------| 
D-----------------------------------------------| 

Chorus: x2 

Guitar 1 
E------------------------------------------------------| 
B------------------------------------------------------| 
G------------------------------------------------------| 
D-44-44-44-44-1|1-1|1-1|1-1|1-44-44-44-44-66-66-44-44--| 
A-44-44-44-44-1|1-1|1-1|1-1|1-44-44-44-44-66-66-44-44--| 
D-44-44-44-44-1|1-1|1-1|1-1|1-44-44-44-44-66-66-44-44--| 

Guitar 2 
E------------------------------------------------------| 
B-7p6-6p4-----7p6-6p4------7p6-6p4----7p6-6p4-7-7-4-6--| 
G------------------------------------------------------| 
D------------------------------------------------------| 
A------------------------------------------------------| 
D------------------------------------------------------| 
	  

Search Paypal
auto scroll beats size up size down change color hide chords drawings
tab show chords e-chords YouTube Clip e-chords hide all tabs e-chords go to top tab