Dead Combo

home > Dead Combo

Lisboa Mulata Tab

Dead Combo

Difficulty: nolevelnolevel

by ang%2Dletra

tuner correct add songbook print version text version save to e-mail
chordsukulelecavacokeyboardtabbassdrumsharmonicsflute Guitar Pro
chords

Lisboa Mulata

  		

The rhythm repeats Am / / / E / / / throughout the song. 

Main lead riff: 

    Am (sweep)                      E (sweep) 
     
e|--12------12-12-13-12----------|--12---------------------------------------| 
B|--13----13-------------13------|--12----12-12-13-12------------------------| 
G|--14--14-------------------14--|--13---13----------------------------------| 
D|-------------------------------|--14--14-----------------------------------| 
A|-------------------------------|-------------------------------------------| 
E|-------------------------------|-------------------------------------------| 

Another lead riff, played with many variations: 

e|---------------------------------------------------------------------------| 
B|---------------------------------------------------------------------------| 
G|---------------------------------------------------------------------------| 
D|---------------------------------------------------------------------------| 
A|-12-12-12------------------------------------------------------------------| 
E|----------12---10-10-10--12-13-12------------------------------------------| 


************************************ 

| /   slide up 
| \   slide down 
| h   hammer-on 
| p   pull-off 
| ~   vibrato 
| +   harmonic 
| x   Mute note 
| b   Bend 
| pb  Pre-bend 
| br  Bend release 
| pbr Pre-bend release 
| brb Bend release bend 

************************************ 
	  

Full key step upFull key step up
Half key step upHalf key step up
Half key step downHalf key step down
Full key step downFull key step down
Search Paypal
auto scroll beats size up size down change color hide chords drawings
tab show chords e-chords YouTube Clip e-chords hide all tabs e-chords go to top tab