Dave Matthews Band

Tripping Billies (ver. 3)

Dave Matthews Band

tabs

save to print version add songbook text version e-mail correct tuner
chordsukulelecavacokeyboardtabbassdrumsharmonicaflute Guitar Pro
close

there isn't a video lesson for this song

chords

Tripping Billies (ver. 3)

	  		Transcribed by: Adam Strachn 
Email: [email protected] 
 
Work on the verse and you'll have it. 
 
Nature Intro  4x (strum) 
---------------------| 
---------------------| 
-6--4--6--4-----/7---| 
----------------/0---| 
-2--2--2--2------x---| 
-5--5--5--5-----/7---| 
 
Or play it this way  
----------------------------------------------| 
----------------------------------------------| 
-6--6--6--x--6--6--6-----6--6--6--x--6----/7--| 
-------------9--9--9-----------------0-----0--| 
-7--7--7--x--7--7--7-----7--7--7--x--7--------| 
-5--5--5--x--5--5--5-----5--5--5--x--5----/7--| 
 
                                                                               
Album Intro - 
------ --------------- ------ --------------|                                   
------ --------------- ------ --------------| 
-2--4- --2--4---7--6-- -2--4- -2--4--6--7---|                                   
-0--0- --0--0---0--0-- -0--0- -0--0--0--0---| 
------ --------------- ------ --------------|                                   
-2--3- --2--3---7--5-- -2--3- -2--3--5--7---| 
                                                                               
 
Verse  (We were above . . .) 
-----------------------------------------------------------| 
-----2-----------------------------------------------------| 
---------4/6--------7-7-------------4h5p4-----------x-x----| 
--------------------7-7------------------------9-9--x-x----| 
----------------/5--5-5--------7---------------9-9--x-x----| 
-5-------------------------8------------/7-----7-7--x-x----| 
 
-----------------------------------------------------------| 
----2------------------------------------------------------| 
---------4/6--------7-7----x-x-x------2--------4--4-4-4-4--| 
--------------------7-7----x-x-x------0--------0--0-0-0-0--| 
----------------/5--5-5----x-x-x---------------------------| 
-5-------------------------x-x-x------2--------3--3-3-3-3--| 
 
Chorus (Eat, drink and be merry . . .) 
-------- -----------------------| 
-------- -----------------------| 
-7--6--- ---2--4--6--7--x--6----| 
-0--0--- ---0--0--0--0--x--0----| 
-------- -----------------------| 
-7--5--- ---2--3--5--7--x--5----| 
 

		  

See also:

tabs Live - Lightning Crashes tabs R.E.M. - Losing my religion tabs Aerosmith - I Don't Want To Miss A Thing tabs Blue Oyster Cult - Dont Fear The Reaper tabs Cheap Trick - The Flame tabs Guns N' Roses - Estranged
e-chords

Other versions:

tabs Dave Matthews Band - Tripping Billies tabs Dave Matthews Band - Tripping Billies (ver. 2) tabs Dave Matthews Band - Tripping Billies (ver. 3)
auto scroll beats size up size down change color hide chords drawings
tab show chords e-chords YouTube Clip e-chords hide all tabs e-chords go to top tab

share