Dave Matthews Band

Tripping Billies (ver. 2)

Dave Matthews Band

tabs

save to print version add songbook text version e-mail correct tuner
chordsukulelecavacokeyboardtabbassdrumsharmonicaflute Guitar Pro
close

there isn't a video lesson for this song

chords

Tripping Billies (ver. 2)

	  		Song: Tripping Billies 
Artist: Dave Matthews Band 
Tabbed By: Chase Buchanan 
 
 
~~This is the intro to it on luther college 
E:----------------------------------- 
B:----------------------------------- 
G:-6------4------6------4---6/7-7- 
D:-2------2------2------2---x------ 
A:-x------x------x------x---x------ 
E:-5------5------5------5---5/7-7- 
 
~~~The regular intro 
 
E:----------------------------------------------------------------- 
B:----------------------------------------------------------------- 
G:-2---4----2---4---7---6---2---4----2---4---6---7---2---4-- 
D:-x---x----x---x---x---x---x---x----x---x---x---x---x---x-- 
A:-x---x----x---x---x---x---x---x----x---x---x---x---x---x-- 
E:-2---3----2---3---7---5---2---3----2---3---5---7---2---3-- 
 
E:---------------------------------------------- 
B:---------------------------------------------- 
G:-2---4---7---6---2---4----2---4---6---7-- 
D:-x---x---x---x---x---x----x---x---x---x-- 
A:-x---x---x---x---x---x----x---x---x---x-- 
E:-2---3---7---5---2---3----2---3---5---7--- 
 
`````The VERSE  
 
E:-------------------------------- 
B:--------------------------------- 
G:----6--4/--0----7------4/5------- 
D:----2--2---0----7-------------9-- 
A:--------------3/5-------------9-- 
E:-5------------------8~~~~~--5/7-- 
 
E:--------------------------- 
B:--------------------------- 
G:----6--4/--0----7---2---4-- 
D:----2--2---0----7---x---x-- 
A:--------------3/5---x---x-- 
E:-5------------------2---3-- 
 
~~~The CHORUS 
 
E:-------------------------------------------------- 
B:-------------------------------------------------- 
G:-7----6----2--4--4/7--6-----7----6----2--4--6--7-- 
D:-x----x----x--x--x----x-----x----x----x--x--x--x-- 
A:-x----x----x--x--x----x-----x----x----x--x--x--x-- 
E:-7----5----2--3--3/7--5-----7----5----2--3--5--7-- 
 

		  

See also:

tabs Live - Lightning Crashes tabs R.E.M. - Losing my religion tabs Aerosmith - I Don't Want To Miss A Thing tabs Blue Oyster Cult - Dont Fear The Reaper tabs Cheap Trick - The Flame tabs Guns N' Roses - Estranged
e-chords

Other versions:

tabs Dave Matthews Band - Tripping Billies tabs Dave Matthews Band - Tripping Billies (ver. 2) tabs Dave Matthews Band - Tripping Billies (ver. 3)
auto scroll beats size up size down change color hide chords drawings
tab show chords e-chords YouTube Clip e-chords hide all tabs e-chords go to top tab

share