Dave Matthews Band

Tripping Billies

Dave Matthews Band

tabs

save to print version add songbook text version e-mail correct tuner
chordsukulelecavacokeyboardtabbassdrumsharmonicaflute Guitar Pro
close

there isn't a video lesson for this song

chords

Tripping Billies

(Dave Matthews)

	  		This is how I play Tripping Billies, trust this tab, the verse or live intro is not exactly how Dave plays it but it sound just right and it?s a hell of a lot easier!If you cant make a really big stretch and hold it for along time, then try this. 
 
Tripping Billies 
Intro(1)(live) 
------------------ 
-0-2-------------- 
-2-2-/7----------- 
-2-2-/0----------- 
-----/x----------- 
-----/7----------- 
 
Intro (2) 
--------------------------- 
--------------------------- 
-2-4---2-4-7-4-2-4-5-7----- 
-0-0---0-0-0-0-0-0-0-0----- 
-x-x---x-x-x-x-x-x-x-x----- 
-2-3---2-3-7-3-2-3-5-7----- 
 
Verse 
------------------------------------------------ 
------------------------------------------------ 
----3-3-------4/5/4--3-3-------4/5/4-----3-2/4-- 
----3-3-----7--------3-3-----7-----------3-0/0-- 
--3/5-5---7--------3/5-5---------------3/5-x/x-- 
--------8------------------8---------------2/3-- 
 
Chorus 
--------------------------- 
--------------------------- 
-2-4---2-4-7-4-2-4-5-7----- 
-0-0---0-0-0-0-0-0-0-0----- 
-x-x---x-x-x-x-x-x-x-x----- 
-2-3---2-3-7-3-2-3-5-7----- 
 
That?s it y?all 
 

		  

See also:

tabs Live - Lightning Crashes tabs R.E.M. - Losing my religion tabs Aerosmith - I Don't Want To Miss A Thing tabs Blue Oyster Cult - Dont Fear The Reaper tabs Cheap Trick - The Flame tabs Guns N' Roses - Estranged
e-chords

Other versions:

tabs Dave Matthews Band - Tripping Billies tabs Dave Matthews Band - Tripping Billies (ver. 2) tabs Dave Matthews Band - Tripping Billies (ver. 3)
auto scroll beats size up size down change color hide chords drawings
tab show chords e-chords YouTube Clip e-chords hide all tabs e-chords go to top tab

share