Darknessowl

Secret Of Life

Darknessowl

tabs

by  EDSOOLIVEIRA

save to print version add songbook text version e-mail correct tuner
chordsukulelecavacokeyboardtabbassdrumsharmonicaflute Guitar Pro
close

there isn't a video lesson for this song

chords

Secret Of Life

	  		
    F#4/D   C9/F    A4/D    D4 
E|-2-----2-0-----0-0-----0-0-----0-| 
B|---0-------1-------0-------3-----| 
G|-----0-------0-------2-------0---|  2X 
D|-0-----0-0-----0-0-----0-0-----0-| 
A|---------------------------------| 
E|---------------------------------| 

    F#4/D C9/F  A4/D  D4    F#4/D C9/F  A4/D 
E|-2---2-0---0-0---0-0---0-2---2-0---0-0---0--------| 
B|-0---0-1---1-0---0-3---3-0---0-1---1-0---0--------| 
G|-0---0-0---0-2---2-0---0-0---0-0---0-2---2--------| 
D|---0-----0-----0-----0-----0-----0-----0----------| 
A|--------------------------------------------------| 
E|--------------------------------------------------| 

    Dm      G6/D      Dm 
E|-1---1-1/3-3---3-3\1-| 
B|-3---3-3/5-5---5-5\3-| 
G|-2---2-2/4-4---4-4\2-| 4X 
D|---0---------0-------| 
A|---------------------| 
E|---------------------| 

    F7M   Am 
E|-0---0-0---0-| 
B|-1---1-1---1-| 
G|-2---2-2---2-| 2X 
D|---3-----2---| 
A|-------------| 
E|-------------| 

    F9      Am 
E|-3-----3-0-----0-----| 
B|---1-------1---------| 
G|-----2-------2-------| 2X 
D|-3-----3-2-----0-----| 
A|---------------------| 
E|---------------------| 

    F#4/D   C9/F    A4/D    D4 
E|-2-----2-0-----0-0-----0-0-----0-| 
B|---0-------1-------0-------3-----| 
G|-----0-------0-------2-------0---|  2X 
D|-0-----0-0-----0-0-----0-0-----0-| 
A|---------------------------------| 
E|---------------------------------| 
		  

Full key step upFull key step up
Half key step upHalf key step up
Half key step downHalf key step down
Full key step downFull key step down
auto scroll beats size up size down change color hide chords drawings
tab show chords e-chords YouTube Clip e-chords hide all tabs e-chords go to top tab

share