Dark Funeral

Open the gates

Dark Funeral

tabs Advanced advanced

save to print version add songbook text version e-mail correct tuner
chordsukulelecavacokeyboardtabbassdrumsharmonicaflute Guitar Pro
close

there isn't a video lesson for this song

chords

Open the gates

	  		  RIFF1  
||------------------------------------||  
||------------------------------------||  
||------------------------------------||  
||777777777777/88\77444444444444/55\44||  
||555555555555/66\55222222222222/33\22||  
||------------------------------------||  
 
{play riff2 twice}  
 
  RIFF2  
||----------------|----------------|| guitar1  
||----------------|----------------||  
||--------7-------|--------4-------||  
||7-7-8-7---7-8-7-|4-4-5-4---4-5-4-||  
||----------------|----------------||  
||----------------|----------------||  
|  
||----------------|----------------|| guitar2  
||----------------|----------------||  
||----------------|----------------||  
||7---------------|4---------------||  
||5---------------|2---------------||  
||----------------|----------------||  
 
{repeat riff3 four times}  
 
  RIFF3  
||------------------------------------||  
||------------------------------------||  
||------------------------------------||  
||7-7-7-7-7-7-/8\7/64-4-4-4-4-4-/5\4/5||  
||5-5-5-5-5-5-/6\7/62-2-2-2-2-2-/3\2/3||  
||------------------------------------||  
              <    >            <    >  
              triplet           triplet  
 
{riff4A is played four times, too;  
 then play riff4B twice;  
 repeat riffA twice}  
 
  RIFF4A  
||--------------------------------|| guitar1  
||--------------------------------||  
||--------------------------------||  
||7-7-7-7-8-8-8-8-7-7-7-7-6-6-6-6-||  
||5-5-5-5-6-6-6-6-5-5-5-5-4-4-4-4-||  
||--------------------------------||  
|  
|?--------------------------------?| guitar2  
|?--------------------------------?|  
|?--------------------------------?|  
|?7-6-7-6-8-7-8-7-7-6-7-6-6-5-6-5-?|  
|?--------------------------------?|  
|?--------------------------------?|  
 
  RIFF4B  
||--------------------------------||  
||--------------------------------||  
||--------------------------------||  
||77777777888888887777777766666666||  
||55555555666666665555555544444444||  
||--------------------------------||  
 
{play riff5 twice}  
 
  RIFF5  
||----------------|----------------||  
||----------------|----------------||  
||----------------|----------------||  
||7-7-7-7-8-8-8-8-|7-7-7-7-6-6-6-6-||  
||5-------6-------|5-------4-------||  
||----------------|----------------||  
 
{riff6: four times}  
 
  RIFF6  
||--------|--------||  
||--------|--------||  
||--------|--------||  
||5-5-----|5-5-6-6-||  
||3-3-6-6-|3-3-4-4-||  
||----4-4-|--------||  
 
{play riff7 four times}  
 
  RIFF7  
||------------------------------------||  
||------------------------------------||  
||------------------------------------||  
||55555555----------55555555666666/8\6||  
||33333333666666/7\633333333444444/6\4||  
||--------444444/5\4------------------||  
 
{play riff8: g1, one time;  
 play riff8: g1+g2, one time;  
 play riff8: g1, eight times;}  
 
  RIFF8  
||----------------|| guitar1  
||----------------||  
||----------------||  
||----------------||  
||3-5-6-5---5-6-5-||  
||--------4-------||  
|  
||----------------|| guitar2  
||----------------||  
||----------------||  
||5---------------||   
||3-------6-------||  
||--------4-------||  
 
{riff9 is played four times}  
 
  RIFF9  
||----------------|----------------||  
||----------------|----------------||  
||------3-2-5-3-2-|------3-2-------||  
||5-5-4-----------|5-5-4-----5-4---||  
||----------------|--------------5-||  
||----------------|----------------||  
 
{repeat riff6 four times}  
 
{play riff10A;  
 play riff10B;  
 play riff10A;  
 play riff10B;}  
 
  RIFF10A  
||----|----|------------|----|----|----|----|  
||----|----|------------|----|----|----|----|  
||----|----|------------|----|----|----|----|  
||5---|5---|5/6-6/8-8\6\|5---|5---|----|----|  
||3---|3---|3/4-4/6-6\4\|3---|3---|6---|6---|  
||----|----|------------|----|----|4---|4---|  
            <          >  
              triplet  
 
  RIFF10B  
 |----|----|------------|----|----|------||  
 |----|----|------------|----|----|------||  
 |----|----|------------|----|----|------||  
 |5---|5---|5/6-6/8-8\6\|5---|5---|8-9-8-||  
 |3---|3---|3/4-4/6-6\4\|3---|3---|6-7-6-||  
 |----|----|------------|----|----|------||  
            <          >           <     >  
              triplet              triplet  
 
{repeat riff7 four times}  
 
{play riff8: g1, one time;  
 play riff8: g1+g2, one time;  
 play riff8: g1, eight times;} 
 
_______________________________________________________ 
Contribuição: Gabriel Brito([email protected]) 

		  

See also:

tabs Arch Enemy - Heart of darkness tabs Arch Enemy - Burning Angel tabs Dark Funeral - Secrets of the black arts tabs Arch Enemy - Angelclaw tabs Arch Enemy - starbreaker tabs Dark Funeral - Open the gates
e-chords

Other versions:

tabs Dark Funeral - Open the gates tabs Extol - Open The Gates
auto scroll beats size up size down change color hide chords drawings
tab show chords e-chords YouTube Clip e-chords hide all tabs e-chords go to top tab

share