Dangerkids

home > Dangerkids

Paper Thin Tab

Dangerkids

Difficulty: nolevelnolevel

by hebealmeida

tuner correct add songbook print version text version save to e-mail
chordsukulelecavacokeyboardtabbassdrumsharmonicsflute Guitar Pro
chords

Paper Thin

  		

Intro =  

E|-----------------------------------------| 
B|-----------------------------------------| 
G|-4~--4-6-8~----6~---4~--4-6-8----6~---8~-| 
D|-4~--4-6-8~----6~---4~--4-6-8----6~---8~-| 
A|-2~--2-4-6~----4~---2~--2-4-6----4~---6~-| 
E|-----------------------------------------| 

Verse : No Guitar 

Chorus =  

E|------------------------------------| 
B|------------------------------------| 
G|-4~--4-6-8~----6~---4~--4-6-8----6~-| 
D|-4~--4-6-8~----6~---4~--4-6-8----6~-| 
A|-2~--2-4-6~----4~---2~--2-4-6----4~-| 
E|------------------------------------| 

Verse : No Guitar 

Bridge =  

E|----------------------------------| 
B|----------------------------------| 
G|----------------------------------|(x3) 
D|----------------------------4~----| 
A|-6-66-6-66-------4-44-4-4---2~----| 
E|-6-66-6-66-------4-44-4-4---2~----| 

E|--------------------------------| 
B|--------------------------------| 
G|--------------------------------| 
D|---------------------------4~---| 
A|-6-66-6-66-------4~--4~----2~---| 
E|-6-66-6-66-------4~--4~----2~---| 

Return To Chorus. 

Outro =  

E|---------------------------------------------------------------| 
B|---------------------------------------------------------------| 
G|---------------------------------------------------------------| 
D|----------------------------4~------------------------------4~-| 
A|-6-66-6-66-------4-44-4-4---2~----6-66-6-66-------4~--4~----2~-| 
E|-6-66-6-66-------4-44-4-4---2~----6-66-6-66-------4~--4~----2~-| 
	  

Search Paypal
auto scroll beats size up size down change color hide chords drawings
tab show chords e-chords YouTube Clip e-chords hide all tabs e-chords go to top tab