Dance of Days

Lírios aos Anjos

Dance of Days

tabs

save to print version add songbook text version e-mail correct tuner
chordsukulelecavacokeyboardtabbassdrumsharmonicaflute Guitar Pro
close

there isn't a video lesson for this song

chords

Lírios aos Anjos

	  		INTRO: (C# A Em7) 
 
Se ser feliz ainda me fosse objeto de paz... 
 
   C#          A             E           E 
e|---0---0~--------0---0~-------0---0~------0---0~-| 
B|-----0-------------0------------0-----------0----| 
G|-------------------------------------------------| 
D|-------------------------------------------------| 
A|-4~----------0~----------------------------------| 
E|---------------------------0~----------0~--------| 
 
E não sei, não sei como preencher o vazio sem fim destes passos... 
 
    C#    A    Em7    B     C#   A    Em7 
e|---------------------------------------------| 
B|-------2-----------------------2-------------| 
G|--6----2-----9------4-----2----2----9--------| 
D|--6----2-----9------4-----2----2----9--------| 
A|--4----0-----7------2-----4----0----7--------| 
E|---------------------------------------------| 
                                    PM---------| 
 
Talvez precise bem mais que um sorriso incapaz... 
 
    C#          A             Em           Em 
e|---0---0~--------0---0~-------0---0~------0---0~-| 
B|-----0-------------0------------0-----------0----| 
G|-------------------------------------------------| 
D|-------------------------------------------------| 
A|-4~----------0~----------------------------------| 
E|---------------------------0~----------0~--------| 
 
 
E não sei, não sei como preencher o vazio sem fim destes passos... 
 
    C#    A    Em    B     C#   A    Em 
e|-------------------------------------------| 
B|-------2----------------------2------------| 
G|--6----2-----------4-----2----2------------| 
D|--6----2-----2-----4-----2----2----2-------| 
A|--4----0-----2-----2-----4----0----2-------| 
E|-------------0---------------------0-------| 
                                    PM-------| 
 
 
Só sei que quero para de fingir não ver no dia... 
 
   A       Em7       C#        B 
e|--------------------------------------------------|---------| 
B|-5-4-------5-4---7~-5-4--------5-4---------7~-----|--5-4~---| 
G|-----4-4/6-----4--------4-4/6------4-4-4-4----(2X)|---------| 
D|--------------------------------------------------|---------| 
A|--------------------------------------------------|---------| 
E|--------------------------------------------------|---------| 
 
 
Me entregaram jornais de meses que eu só queria deixar pra trás... 
 
e|--4/5-4--------------4/5-4-------------7~-----|-4/5-4---------------4/5-4-----7~---| 
B|--------5-5-5/7~-7-5~-------5-5-5/7~-5--------|-------5-5-5/7~-7-5~-------5-5------| 
G|---------------------------------------(2X)---|------------------------------------| 
D|----------------------------------------------|------------------------------------| 
A|----------------------------------------------|------------------------------------| 
E|----------------------------------------------|------------------------------------| 
 
 
Silêncio... Silêncio...deixa o vento carregar tudo que me resta adiante...  
 
    C#    Em7   B 
e|--------------------| 
B|--------------------| 
G|--6-----9-----4-----| 
D|--6-----9-----4-----| 
A|--4-----7-----2-----| 
E|--------------------| 
 
Porque só quero parar de fingirnão ver no dia um caminho cada vez mais longo... 
 
e|--------------------------------------------------| 
B|-5-4-------5-4---7~-5-4--------5-4---------7~-----| 
G|-----4-4~-----4--------4-4/6------4-4-4-4---------| 
D|--------------------------------------------------| 
A|--------------------------------------------------| 
E|--------------------------------------------------| 
 
SOLO FINAL 
 
e|--------------------5~4~-----------------------------------------------| 
B|-------5-4---------------------5-4----------5-4----4-7~-5-4------------| 
G|-4/6-4-----4~-4/6-4------4/6-4-----4~-4/6-4-----4~----------4/6-4~-----| 
D|-----------------------------------------------------------------------| 
A|-----------------------------------------------------------------------| 
E|-----------------------------------------------------------------------| 

		  

Full key step upFull key step up
Half key step upHalf key step up
Half key step downHalf key step down
Full key step downFull key step down
hide glossary

See also:

tabs Mukeka di Rato - Maconha tabs Maria Cecília e Rodolfo - Você De Volta tabs Fistt - Medo tabs Fenix TX - Threesome tabs Dance of Days - Quando o Veneno Sobe A lança tabs Maria Cecília e Rodolfo - Você De Volta Ao Vivo
e-chords

Other versions:

tabs Dance of Days - Lírios aos Anjos
auto scroll beats size up size down change color hide chords drawings
tab show chords e-chords YouTube Clip e-chords hide all tabs e-chords go to top tab

share