Dance of Days

Instantes

Dance of Days

tabs

save to print version add songbook text version e-mail correct tuner
chordsukulelecavacokeyboardtabbassdrumsharmonicaflute Guitar Pro
close

there isn't a video lesson for this song

chords

Instantes

	  		 
|-----------------------------|3|-------------|r   3 
|---7---7---------------------|v|-------------|e t v 
|-7---7---7--7/9--9-9-9-9-7-6-|e|-7/14--14-12-|p u e 
|-----------------------------|z|-------------|e d z 
|-----------------------------|e|-------------|t o e  
|-----------------------------|s|-------------|e   s 
Não mais,    caminhar na praia 
Não mais,    outro entardecer 
Não mais,    a brisa que diz vai chover 
Não mais,    as luzes da cidade 
Não mais,    me dizendo que 
Não mais,    é tanta coisa pra viver 
 
|------------------------------------ 
|------------------------------------ 
|-7-----------------7---------------- 
|-----10--9--10--9------10--9--10/12-|------------------------------------ 
|------------------------------------ 
 
-------------------------------------------------|r   2 
-------------------------------------------------|e t v 
--7-------------------------7777-9999--7777-9999-|p u e 
------10--9--10--9--10--9------------------------|e d z 
-------------------------------------------------|t o e 
-------------------------------------------------|e   s 
Eu que tanto quis guardar meus dias 
Eu que tanto pensei com medo de tentar 
Já não mais, não mais brigas  
Dão chances de errar 
 
|------------------------------------------ 
|------------------------------------------ 
|------------------------------------------ 
|-5-5-5--5-5-5----------------7-7-7--7-7-7- 
|-3-3-3--3-3-3--5-5-5--5-5-5--5-5-5--5-5-5- 
|---------------3-3-3--3-3-3--------------- 
                                           
-------------------------|r   2 
-8-----------------------|e t v 
-----7--9--7--5--7--9--7-|p u e 
-------------------------|e d z 
-------------------------|t o e 
-------------------------|e   s 
Ah quando eu penso uhuhuhu 
Que tudo poderia ser 
Ah quando eu lembro uhuhuhu 
Que era só querer 
 
|---------------------|2|---------------|3 
|-8-------------------|v|---------------|v t 
|-----7-7--9p7-9-9-9--|e|-9-7-----7-9-7-|e u 
|---------------------|z|------10-------|z d 
|---------------------|e|---------------|e o 
|---------------------|s|---------------|s 
 
A fumaça sai de meu olhar 
E eu tento não ver, tento negar 
Que este no espelho já não sou mais 
 
|---------------|2 
|---------------|v 
|-9-7-----7-9-7-|e 
|-----10--------|z 
|---------------|e 
|---------------|s 
 
|------------------------------------ 
|------------------------------------ 
|-7-----------------7---------------- 
|-----10--9--10--9------10--9--10/12-|------------------------------------ 
|------------------------------------ 
 
-------------------------------------------------| 
-------------------------------------------------| 
--7-------------------------7777-9999--7777-9999-| 
------10--9--10--9--10--9------------------------| 
-------------------------------------------------| 
-------------------------------------------------| 
 
|----------------------------------------- 
|----------------------------------------- 
|-7-----------------7--------------------- 
|-----10--9--10--9------10--9--10/12--12--|----------------------------------------- 
|----------------------------------------- 
 
--------------------------------------------------| 
----------------------------8---------------------| 
--7---------------------------7--9--7--5--7--9--7-| 
------10--9--10--9--10--9-------------------------| 
--------------------------------------------------| 
--------------------------------------------------| 
 
COMEÇO DA PARTE CANTADA 
|---------------------|3 |--------------------------------- 
|-8-------------------|v |-------8-----------8-----------8- 
|-----7-7--9p7-9-9-9--|e |-5--7-----7--5--7-----7--5--7---- 
|---------------------|z |--------------------------------- 
|---------------------|e |--------------------------------- 
|---------------------|s |--------------------------------- 
 
----------------------------------------------------------------------| 
-8/10-8------------8-8/10-8----------8-8/10--8------------------------| 
----------7--5--7------------7--5--7------------9p7-------7--9--7--7--| 
-----------------------------------------------------10---------------| 
----------------------------------------------------------------------| 
----------------------------------------------------------------------| 
 
|---------------------|3|-----------------|2 
|-8-------------------|v|-8---8---8---8---|v t 
|-----7-7--9p7-9-9-9--|e|---7---7---7---7-|e u 
|---------------------|z|-----------------|z d 
|---------------------|e|-----------------|e o 
|---------------------|s|-----------------|s 
 
Agarro meu sonhos entre minha mão 
mas por entre meus dedos eles se vão 
Ah se eu pudesse voltar atrás 
Juro eu viveria a cada dia 
Mas tão fraco já não posso mais 
Recuperar os anos que deixei pra trás 
Andaria na chuva 
Pularia no mar 
Te diria tudo que deixei de falar 
 
|--------------------|3 |-----------------| 
|---------8----------|v |-8---8---8---8---| 
|-9p7--7-----7--7--7-|e |---7---7---7---7-| 
|--------------------|z |-----------------| 
|--------------------|e |-----------------| 
|--------------------|s |-----------------| 
Não mais, não mais, não mais,   uhuhuhuhuhu 
 
|---------------------|3|-----------------| 
|-8-------------------|v|-8---8---8---8---| 
|-----7-7--9p7-9-9-9--|e|---7---7---7---7-| 
|---------------------|z|-----------------| 
|---------------------|e|-----------------| 
|---------------------|s|-----------------| 
Não mais, não mais, não mais,   uhuhuhuhuh 
 
|------------------------------------ 
|-8---8---8---8----10--8------------- 
|---7---7---7---7---------9-9p7-9-9-- 
|------------------------------------ 
|------------------------------------ 
|------------------------------------ 
 
----------------------------------------------| 
8---8---8---8----10-10-10-10-10--8--7--8b--8~-| 
--7---7---7---7-------------------------------| 
----------------------------------------------| 
----------------------------------------------| 
----------------------------------------------| 
Não mais, não mais,   uhuhuhuhuhuhu 
 
 
_______________________________________________________ 
Contribuição: Vinicius Sera Colasanto([email protected]) 

		  

See also:

tabs Mukeka di Rato - Maconha tabs Maria Cecília e Rodolfo - Você De Volta tabs Fistt - Medo tabs Fenix TX - Threesome tabs Dance of Days - Quando o Veneno Sobe A lança tabs Maria Cecília e Rodolfo - Você De Volta Ao Vivo
e-chords

Other versions:

tabs Dance of Days - Instantes
auto scroll beats size up size down change color hide chords drawings
tab show chords e-chords YouTube Clip e-chords hide all tabs e-chords go to top tab

share