Dance of Days

É só o inferno e mais nada

Dance of Days

tabs

save to print version add songbook text version e-mail correct tuner
chordsukulelecavacokeyboardtabbassdrumsharmonicaflute Guitar Pro
close

there isn't a video lesson for this song

chords

É só o inferno e mais nada

	  		 Intro: ( G,A,F )X2 
 
G1 RIFF1 
e|---------3-1-0---0--------------------------- 
B|---1---1-------3---0------------------------- 
G|-2---2-----------------------------5-5-4-4-54 
D|-----------------------2--5--2--5--5-5-5-5-55 
A|--------------------------------------------- 
E|--------------------------------------------- 
 
G1 RIFF2 
e|------------------------------------------------------- 
B|------------------------------------------------------- 
G|-------------------5555-------------------------------- 
D|-------------------5555----7/9-9-9-9-7-5--7/9-9-9-9-7-5 
A|-----5/7-7--5/7-7----------5/7-7-7-7-5-3--5/7-7-7-7-5-3 
E|-----3/5-5--3/5-5-------------------------------------- 
 
G1 RIFF3 
 
e|------------------------------- 
B|------------------------------- 
G|------------------------------- 
D|----------5-5-x-3---7-7--7-5--- 
A|----5/7-7-3-3-x-3---5-5--5-3--- 
E|----3/5-5-------1-------------- 
 
G1 RIFF4 
 
e|------------------------------------------ 
B|----1---1-1-3-1-0---0--------------------- 
G|--2---2-----------2---0----4---4-4-5-2---- 
D|-------------------------5---5------------ 
A|------------------------------------------ 
E|------------------------------------------ 
 
G2 RIFF 
 
G|---4H5-5 3X   G|---4-X-X-4-X-X-4 1X escute a música ´para pegar o  
                                    TEMPO ( ESTA PARTE ROLA NO  
                                    PRIMEIRO VERSO, JUNTO COM 
                                    O G1 RIFF 1) 
                                
INTRO 2X 
 
(G1 RIFF 1 E G2 RIFF1) 4X 
 
TUDO É TÃO MISERÁVEL 
QUANDO PASSAMOS A MENTIR  
PARA SUSTENTAR MENTIRAS... 
E JÁ NÃO PODEMOS FINGIR 
NÃO ESTAR TÃO FRUSTRADOS COM O QUE TEMOS 
E POR ESTARMOS TANTO TEMPO AQUI. 
 
(INTRO)2X 
 
DAQUI DE CIMA NÃO HÁ NADA PRA ENXERGAR. 
 
(G1 RIFF2)4X 
FOI TUDO EM VÃO, EU SEI... 
O SUÓR SECO PELO VENTO 
AGORA A QUEM CULPAR POR VER 
TANTAS RUGAS NO ESPELHO, 
OSSOS MAGROS NOS JOELHOS 
E NENHUM TROFÉU QUANDO VENCEMOS? 
 
( G1 RIFF 3)4X 
 
SE FICAR AQUI NÃO VÃO TE VER CHORAR 
E QUEM SABE POSSAS TER SORTE  
AO CONTAR AS PROMESSAS 
QUE ENTUPIAM SEUS BOLSOS... 
PLACEBO PRA ALIMENTAR AS TRAÇAS. 
 
(G1 RIFF4 E G2 RIFF 1) 4X 
 
O BISPO QUEBRA MINHAS DEFESAS 
E OS PEÕES NÃO PODEM MAIS IMPEDIR 
O OLHAR DE MEDUSA DE SUAS TORRES 
A RAINHA FEITA PEDRA 
ESQUECE DE SUA VIDA... 
TÃO PERDIDA QUANTO INFELIZ. 
 
(INTRO) 2X 
 
ENTÃO NÃO DIZ PRA MIM QUE TUDO VAI PASSAR 
 
(G1 RIFF 2 )4X 
 
É SÓ O INFERNO, EU SEI... 
O SUÓR SECO PELO VENTO. 
JURAS DE AMOR COMENDO A LINGUA. 
DIZ ENTÃO QUE BEIJARIAS  
MINHA BOCA CHEIA DE FORMIGAS 
AGORA QUE É ISTO E MAIS NADA. 
 
 
*** VALEU GALERA, FALTARAM  ALGUNS RIFFS DA SEGUNDA GUITARRA. 
MAS JÁ, JÁ EU MANDO. SE TIVEREM ALGUMA DÚVIDA ME MANDEM UM e|-MAIL: 
[email protected] DIEGO MIRANDA( BOB )- EMBU*** 

		  

See also:

tabs Mukeka di Rato - Maconha tabs Maria Cecília e Rodolfo - Você De Volta tabs Fistt - Medo tabs Fenix TX - Threesome tabs Dance of Days - Quando o Veneno Sobe A lança tabs Maria Cecília e Rodolfo - Você De Volta Ao Vivo
e-chords

Other versions:

tabs Dance of Days - É só o inferno e mais nada
auto scroll beats size up size down change color hide chords drawings
tab show chords e-chords YouTube Clip e-chords hide all tabs e-chords go to top tab

share