Dance of Days

Carro Bomba

Dance of Days

tabs

save to print version add songbook text version e-mail correct tuner
chordsukulelecavacokeyboardtabbassdrumsharmonicaflute Guitar Pro
close

there isn't a video lesson for this song

chords

Carro Bomba

	  		 
Intro: 
> = desse ate a ultima casa 
< = sob ate a primeira casa 
e:|------------------| 
B:|------------------| 
G:|-5->>>------------| 2x 
D:|-5->>>--10-<<<----|  
A:|-3->>>--10-<<<----|  
E:|--------8--<<<----| 
 
Quando começa a cantar 
e:|--------------------------------------| 
B:|--------------------------------------| 
G:|--------------------------------------| 4x 
D:|-6/4/6/4-2-2---4/6/4/6-10-10----------| 
A:|-6/4/6/4-2-2---4/6/4/6-10-10----------| 
E:|-4/2/4/2-0-0---2/4/2/2--8--8----------| 
 
Nada...Nada... 
 
e:|----------------------------------------------| 
B:|----------------------------------------------| 
G:|----------------------------------------------| 
D:|-4/10/4/10/4/10/4/10-10-10-10-10--------------| 
A:|-4/10/4/10/4/10/4/10-10-10-10-10--------------| 
E:|-2/-8/2/-8/2/-8/2/-8--8--8--8--8--------------| 
     
e:|------------------| 
B:|------------------| 
G:|-5----------------| 
D:|-5----7---6-------| 
A:|-3----7---6-------| 
E:|------5---4-------| 
   \6x/\6x/\6x/ 
 
e:|------------------------------------------------| 
B:|------------------------------------------------| 
G:|------------------------------------------------| 
D:|------------------------------------------------| 
A:|------------------------------------------------| 
E:|-5-5-5-5-5-5-7-7-7-7-7-7-8-8-8-8-8-8-10-10-10-10-10-8-8-7-7-5~------| 
 
Depois repete as mesma coisas que ta ai e so ouvi a musica pra sabe 
a ordem serta.Só... 
 
_______________________________________________________ 
Contribuição: Tiago Ferreira([email protected]) 

		  

See also:

tabs Mukeka di Rato - Maconha tabs Maria Cecília e Rodolfo - Você De Volta tabs Fistt - Medo tabs Fenix TX - Threesome tabs Dance of Days - Quando o Veneno Sobe A lança tabs Maria Cecília e Rodolfo - Você De Volta Ao Vivo
e-chords

Other versions:

tabs Dance of Days - Carro Bomba
auto scroll beats size up size down change color hide chords drawings
tab show chords e-chords YouTube Clip e-chords hide all tabs e-chords go to top tab

share