Dance of Days

home > Dance of Days

Adeus Sofia Tab

Dance of Days

Difficulty: AdvancedAdvanced

tuner correct add songbook print version text version save to e-mail
chordsukulelecavacokeyboardtabbassdrumsharmonicsflute Guitar Pro
chords

Adeus Sofia

  		 
|---------------------------------------------------------------------|RIFF*1 
|---------------------------------------------------------------------| 
|---------------------------------------------------------------------| 
|---------------------------------------------------------------------| 
|-12/10-10-10-9-9-7-7/9-12/10-10-10-12--12/10-10-10-9-9-7-7-9-5-5-5-7-| 
|---------------------------------------------------------------------| 
 
|--------------------------|RIFF*2 
|--------------------------| 
|-----7-----7-----7--------| 
|---7-----7-----7----7/9-7-| 
|-5-----5-----5------------| 
|--------------------------| 
 
|----------|RIFF*3 
|----------| 
|-----7----| 
|--7----9--| 
|----------| 
|----------| 
 
RIFF*2 
Diz que não é tarde 
Diz que não vai começar 
a dizer que já vai. 
Comece uma frase 
e eu te digo outra vez mais: 
"Tudo bem... Tanto faz..." 
 
( B   G )RIFF*3 
Diz pra mim que vais estar lá 
sempre pra me segurar, 
se eu deixar que, 
me atires rumo ao céu. 
Me diz, que eu vou acreditar 
 
( D  A B  G )RIFF*1 
e nem vou pensar se me chamar 
pra fugir contigo outra vez 
Não vou pensar se amanhã 
a certeza será talvez. 
 
RIFF*2 
Há tanto medo agora 
que vamos ver o que restou 
após a tempestade... 
Tanto se fez perder... 
E é tão errado 
escolher o deserto 
pra ancorar nossas pernas. 
 
( B   G )RIFF3 
Não permitas 
que a solidão me seja o fim 
ao gritar por teu nome. 
Diz, que eu vou guardar-te sempre 
em meu rosto este mesmo olhar 
 
( D  A B  G )RIFF*1 
e nem vou pensar se me chamar 
pra fugir contigo outra vez. 
Não vou pensar se amanhã 
a certeza será talvez. 
 
RIFF*2 
Comece uma frase Sofia, 
qual aquelas que acendiam estrelas. 
Me deixa uma vez mais 
encantado pela voz que vence madrugadas. 
 
( D  A B  G )ABAFADO COM RIFF*2 
Ah, sofrer em teus braços 
seria o meu prazer 
e viver em mil pedaços 
seria tudo pra mim... 
 
 
_______________________________________________________ 
Contribuição: Vinicius e Lucas "FRANGO" e "BURNS"([email protected]) 

	  

Full key step upFull key step up
Half key step upHalf key step up
Half key step downHalf key step down
Full key step downFull key step down
Search Paypal
auto scroll beats size up size down change color hide chords drawings
tab show chords e-chords YouTube Clip e-chords hide all tabs e-chords go to top tab