Dance of Days

A vitória ou algo que o valha

Dance of Days

tabs

save to print version add songbook text version e-mail correct tuner
chordsukulelecavacokeyboardtabbassdrumsharmonicaflute Guitar Pro
close

there isn't a video lesson for this song

chords

A vitória ou algo que o valha

	  		 
INTRO 
e|---------------------------|------------------------|------------------------| 
B|-6-5-----3-3-3-3-3-3--------|--6-5-----6-6-6-6-6-6/8----|--6-5-----3-3-3----1-1/3-3/5-5/8-------| 
G|-----5-4---------------------|-----5-4------------------|------5-4------5-4----------| 
D|------------------------------|------------------------|------------------------| 
A|------------------------------|------------------------|------------------------| 
E|-------------------------------|------------------------|------------------------| 
 
Refrao:guitar 1:C G A A 
                C G C D E  G 
guitar 2: 
e|---------------------------------- 
B|----3-----8-----3-------- 
G|-5-----5-----5-----5------ 
D|----------------------5- 
A|------------------------- 
E|---------------------------- 
 
base 2:C A C F 
       C A C G 
       C A C F 
       G G G G  
 
base1:C G A A 
 
e|---------------------------------- 
B|----3-----8-----3-------- 
G|-5-----5-----5-----5------ 
D|----------------------5- 
A|------------------------- 
E|---------------------------- 
 
Ponte:o solo usa a msm notas q a intro é facil 
 
refrao:com a intro: 
 
Refrao:guitar 1:C G A A 
                C G C D E  G 
guitar 2: 
e|---------------------------------- 
B|----3-----8-----3-------- 
G|-5-----5-----5-----5------ 
D|----------------------5- 
A|------------------------- 
E|---------------------------- 
 
 
_______________________________________________________ 
Contribuição: marcos abe([email protected]) 

		  

Full key step upFull key step up
Half key step upHalf key step up
Half key step downHalf key step down
Full key step downFull key step down
hide glossary

See also:

tabs Mukeka di Rato - Maconha tabs Maria Cecília e Rodolfo - Você De Volta tabs Fistt - Medo tabs Fenix TX - Threesome tabs Dance of Days - Quando o Veneno Sobe A lança tabs Maria Cecília e Rodolfo - Você De Volta Ao Vivo
e-chords

Other versions:

tabs Dance of Days - A vitória ou algo que o valha
auto scroll beats size up size down change color hide chords drawings
tab show chords e-chords YouTube Clip e-chords hide all tabs e-chords go to top tab

share