Dan Auerbach

Heartbroken In Disrepair

Dan Auerbach

tabs

by  GUSTSILVA

save to print version add songbook text version e-mail correct tuner
chordsukulelecavacokeyboardtabbassdrumsharmonicaflute Guitar Pro
close

there isn't a video lesson for this song

chords

Heartbroken In Disrepair

	  		
F G          F G         F     G         F    F G         F     G 
E|------------|-------3---------------3--------|-------3--------------------| 
B|------------|-------3---------------3--------|-------3--------------------| 
G|------------|-------4---------------4--------|-------4--------------------| 
D|--------(0)-|--------------------------------|----------------------------| 
A|-3-5--------|-3/5-5-----0-3---3/5-5-----0-3--|-3/5-5-----0-3---3/5-5-5----| 
E|-1-3--------|-1/3-3-----0-1---1/3-3-----0-1--|-1/3-3-----0-1---1/3-3-3----| 



0:10                             0:13                                 0:16 
    F G         F     G         F    F G         F     G    1/4 
E|--------------------------------|------------------------------------| 
B|-------3---------------3--------|-------3----------------------3-3---| 
G|-----4-4-------------4-4--------|-----4-4----------------------4-4---| 
D|-----5-5-------------5-5--------|-----5-5-------------5-5------5-5---| 
A|-3/5-5-----0-3---3/5-5-----0-3--|-3/5-5-----0-3---3/5-5-5-1^---5-5---| 
E|-1/3-3-----0-1---1/3-3-----0-1--|-1/3-3-----0-1---1/3-3-3------3-3---| 



0:16                             0:19                                 0:22 
    F G         F     G         F    F G         F     G    1/4 
E|--------------------------------|------------------------------------| 
B|-------3---------------3--------|-------3------------------------3---| 
G|-----4-4-------------4-4--------|-----4-4----------------------4-4---| 
D|-----5-5-------------5-5--------|-----5-5-------------5-5------5-5---| 
A|-3/5-5-----0-3---3/5-5-----0-3--|-3/5-5-----0-3---3/5-5-5-1^---5-----| 
E|-1/3-3-----0-1---1/3-3-----0-1--|-1/3-3-----0-1---1/3-3-3------------| 
_____________________________________________________________________________ 

Bridge 

0:22                              0:25                              0:28 
    G                 F                 G               Bb 
E|-3-3-3-3-3-3-3-3-3\1-1-1-1-1-1-1-|-1/3-3-3-3-3-3-3-3/6-6-6-6-6-6-6-| 
B|-3-3-3-3-3-3-3-3-3\1-1-1-1-1-1-1-|-1/3-3-3-3-3-3-3-3/6-6-6-6-6-6-6-| 
G|-4-4-4-4-4-4-4-4-4\2-2-2-2-2-2-2-|-2/4-4-4-4-4-4-4-4/7-7-7-7-7-7-7-| 
D|-5-5-5-5-5-5-5-5-5\3-3-3-3-3-3-3-|-3/5-5-5-5-5-5-5-5/8-8-8-8-8-8-8-| 
A|---------------------------------|---------------------------------| 
E|---------------------------------|---------------------------------| 


0:28                              0:32                              0:35 
   Bb G               F               F G               Bb 
E|-6\3-3-3-3-3-3-3-3\1-1-1-1-1-1-1-|-1/3-3-3-3-3-3-3-3/6-6-6-6-6-----| 
B|-6\3-3-3-3-3-3-3-3\1-1-1-1-1-1-1-|-1/3-3-3-3-3-3-3-3/6-6-6-6-6-----| 
G|-7\4-4-4-4-4-4-4-4\2-2-2-2-2-2-2-|-2/4-4-4-4-4-4-4-4/7-7-7-7-7-----| 
D|-8\5-5-5-5-5-5-5-5\3-3-3-3-3-3-3-|-3/3-5-5-5-5-5-5-5/8-8-8-8-8-----| 
A|---------------------------------|---------------------------------| 
E|---------------------------------|---------------------------------| 
		  

Full key step upFull key step up
Half key step upHalf key step up
Half key step downHalf key step down
Full key step downFull key step down
auto scroll beats size up size down change color hide chords drawings
tab show chords e-chords YouTube Clip e-chords hide all tabs e-chords go to top tab

share