Damagge

The Entrance Of A Dawn I

Damagge

tabs

by  ABELAMIN

save to print version add songbook text version e-mail correct tuner
chordsukulelecavacokeyboardtabbassdrumsharmonicaflute Guitar Pro
close

there isn't a video lesson for this song

chords

The Entrance Of A Dawn I

	  		
(Intro) 

E|--------------------------------------------------------------------------: 
A|--------------------------------------------------------------------------: 
B|--------------------------------------------------------------------------: 
D|-2-------2-------2-------2-------2-------2-------2-----3-2-----3-2--------: 
G|---3-0-3---3-0-3---2-0-2---2-0-2---3-2-3---3-2-3---2-0-----2-0------------: 
E|--------------------------------------------------------------------------:(2x) 



E|--------------------------------------------------------------------------: 
A|--------------------------------------------------------------------------: 
B|--------------------------------------------------------------------------: 
D|-2-------2-------2-------2-------2-------2-------2-----3-2-----3-2--------: 
G|---3-0-3---3-0-3---2-0-2---2-0-2---3-2-3---3-2-3---2-0-----2-0------------: 
E|--------------------------------------------------------------------------:(2x) 


(Guitarra Secúndaria de Base) 

E|---------------------------------: 
A|---------------------------------: 
B|---------------------------------: 
D|2-----2-----3-----5----6-5----6--: 
G|:3(X8)-2(X8)-2(X8)-3(X4)3-3(X4)3-: 
E|---------------------------------: 


(Refrão) 

E|-----------------------------------------------------: The Flame of the Shame 
A|-----------------------------------------------------: Burning your name 
B|-----------------------------------------------------: The entrace of dawn! 
G|-19/2-2-------2------2------------------------------------: 
D|------0-(x13)-3(x13)-2(x13)-------------------------------: 
E|--------------------------------------------------(x2)----: 



E|-----------------------------------------------------: Stop Trying! 
A|-----------------------------------------------------: Stop Waiting! 
B|-----------------------------------------------------: Now! 
G|-2-------2------2------0------------------------------: 
D|-0-(x13)-3(x13)-2(x13)-2------------------------------: 
E|------------------------------------------------------: 


(solo) 

E|--------------1ªPARTE|------------------------------------: 
A|---------------------------------------------------------: 
G|---------------------------------------------------------: 
B|-2-2-2-3-3-3-2-2-2-5-5-5-2-2-2-3-3-3-2-2-2-0-2-0---------: 
D|-0-0-0-0-0-0-0-0-0-0-0-0-0-0-0-0-0-0-0-0-0-0-0-0---------: 
E|---------------------------------------------------------:(2X) 



E|----------2ªPARTE|------------------------------------------------------: 
A|-----------------------------------------------------------------------: 
G|-----------------------17-------------19--17--15--13~------------------: 
B|--12-12-12-12-12-14-15----15-14-12--17--15--13--11---------------------: 
D|-----------------------------------------------------------------------: 
E|-----------------------------------------------------------------------: 



E|------------------------------------------------------------------------: 
A|------------------------------------------------------------------------: 
G|-----------17------------18--16--13~------------------------------------: 
B|--12-14-15----15-14-12-16--14--12---------------------------------------: 
D|------------------------------------------------------------------------: 
E|------------------------------------------------------------------------: 




E|----------3ªPARTE|---------------------------|---------------------------------------------------------: 
A|--------------------------------------------|---------------------------------------------------------: 
G|-----------17-----------------------------17|-19~-19-17~-17-15~-15-13-15-17-15-----19/2---------------: 
B|9/12-14-15----15-14-12---15-14-12----15-14--|---------------------------------------------------------: 
D|----------------------13---------13---------|---------------------------------------------------------: 
E|--------------------------------------------|--------------------------------------(X2)---------------: 


(Solo, guit. secundária) 


E|---------------------------------------------|---------------------------------------: 
A|--------------17------------19--17--15--13~--|--------17-----------18--16--13~-------: 
B|-12(X5)-14-15----15-14-12-17--15--13--11-----|12-14-15--15-14-12-16--14--12----------: 
G|---------------------------------------------|---------------------------------------: 
D|---------------------------------------------|---------------------------------------: 
E|---------------------------------------------|---------------------------------------: 




E|----------------------------------------|---------------------------------------------------: 
A|----------17--------------------------17|-19~-19-17~-17-15~-15-13-15-17-15------------------: 
B|9/12-14-15--15-14-12--15-14-12--15-14---|----------------------------------------19/2-------: 
G|--------------------13--------13--------|---------------------------------------------------: 
D|----------------------------------------|----------------------------------(2X)-------------: 
E|----------------------------------------|---------------------------------------------------: 



E|------------:----------------------------------------:The Flames of the Shame 
A|-----------------FINAL-------------------------------:Burning your name 
B|-----------------------------------------------------:The entrace of dawn 
D|-2------2-------2-------2----------------------------: 
G|-0(x13)-3-(x13)-2-(x13)-0-(x13)----------------------: 
E|--------------------------------------------------:(x2) 



E|------------:----------------------------------------:Stop trying 
A|-----------------FINAL-------------------------------:Stop waiting 
B|-----------------------------------------------------:Now 
D|-2------2-------2-------2----------------------------: 
G|-0(x13)-3-(x13)-2-(x13)-0----------------------------: 
E|--------------------------------------------------:(x2) 


(Final) 
E|-------------------------------------------------------------: 
A|-------------------------------------------------------------: 
B|-----------------------------------------------------7-------: 
D|-2-------2-------2-------2-------2-----3-2-----3-2~--7-------: 
G|---3-0-3---3-0-3---2-0-2---3-2-3---2-0-----2-0-------5-------: 
E|-------------------------------------------------------------: 
		  

See also:

tabs Deep Purple - Smoke on the water (ver. 3) tabs Albert Hammond Jr - Holiday tabs Deep Purple - When a Blind man cries tabs Deep Purple - The Unwritten Law tabs Deep Purple - Highway Star tabs Ira! - Núcleo Base ( Acústico MTV)
e-chords

Other versions:

tabs Damagge - The Entrance Of A Dawn I
auto scroll beats size up size down change color hide chords drawings
tab show chords e-chords YouTube Clip e-chords hide all tabs e-chords go to top tab

share