Dagoba

The Great Wonder

Dagoba

tabs

by  PAULANTUNES

save to print version add songbook text version e-mail correct tuner
chordsukulelecavacokeyboardtabbassdrumsharmonicaflute Guitar Pro
close

there isn't a video lesson for this song

chords

The Great Wonder

	  		
* = Palm Mute 


Main riff :  

C#|--------------------------------------------------------------------| 
G#|--------------------------------------------------------------------| 
E-|--------------------------------------------------------------------| 
B-|--------------------------------------------------------------------| 
F#|--------------------------------------------------------------------| 
B-|-0-0-12-12-12-10-12-0-0-0-12-12-12-10-12-0-0-12-12-12-12-10-10-10-10| 
                                                                         X2 
C#|----------------------------------------------------------------| 
G#|----------------------------------------------------------------| 
E-|----------------------------------------------------------------| 
B-|----------------------------------------------------------------| 
F#|----------------------------------------------------------------| 
B-|-5-5-5-5-5-5-5-5-5-5-5-5-5-5-5-5-7-7-7-7-7-7-7-7-2-2-2-2-3-3-3-3| 


Riff 1 : 
C#|--------------------------------------| 
G#|--------------------------------------| 
E-|--------------------------------------| 
B-|-0-0-0-0-0-0-0-0-0-0-0-0-0-0-10-10-5-7|   X4 
F#|-0-0-0-0-0-0-0-0-0-0-0-0-0-0-10-10-5-7| 
B-|-0-0-0-0-0-0-0-0-0-0-0-0-0-0-10-10-5-7| 
    * * * * * * * * * * * * * * 
Main riff : 
C#|--------------------------------------------------------------------| 
G#|--------------------------------------------------------------------| 
E-|--------------------------------------------------------------------| 
B-|--------------------------------------------------------------------| 
F#|--------------------------------------------------------------------| 
B-|-0-0-12-12-12-10-12-0-0-0-12-12-12-10-12-0-0-12-12-12-12-10-10-10-10| 
                                                                         X2 
C#|----------------------------------------------------------------| 
G#|----------------------------------------------------------------| 
E-|----------------------------------------------------------------| 
B-|----------------------------------------------------------------| 
F#|----------------------------------------------------------------| 
B-|-5-5-5-5-5-5-5-5-5-5-5-5-5-5-5-5-7-7-7-7-7-7-7-7-2-2-2-2-3-3-3-3| 

Riff 1 : 
C#|--------------------------------------| 
G#|--------------------------------------| 
E-|--------------------------------------| 
B-|-0-0-0-0-0-0-0-0-0-0-0-0-0-0-10-10-5-7|   X2 
F#|-0-0-0-0-0-0-0-0-0-0-0-0-0-0-10-10-5-7| 
B-|-0-0-0-0-0-0-0-0-0-0-0-0-0-0-10-10-5-7| 
    * * * * * * * * * * * * * * 


Chorus :  
C#|--------------------------------------------------------------------| 
G#|--------------------------------------------------------------------| 
E-|--------------------------------------------------------------------| 
B-|-8-8-8-8-8-8-8-8-8-8-8-8-12-12-12-12-7-7-7-7-7-7-7-7-7-7-7-7-7-7-7-7| 
F#|-8-8-8-8-8-8-8-8-8-8-8-8-12-12-12-12-7-7-7-7-7-7-7-7-7-7-7-7-7-7-7-7| 
B-|-8-8-8-8-8-8-8-8-8-8-8-8-12-12-12-12-7-7-7-7-7-7-7-7-7-7-7-7-7-7-7-7| 
                                                                          X2 
C#|----------------------------------------------------------------| 
G#|----------------------------------------------------------------| 
E-|----------------------------------------------------------------| 
B-|-8-8-8-8-8-8-8-8-8-8-8-8-8-8-8-8-7-7-7-7-7-7-7-7-7-7-7-7-7-7-7-7| 
F#|-8-8-8-8-8-8-8-8-8-8-8-8-8-8-8-8-7-7-7-7-7-7-7-7-7-7-7-7-7-7-7-7| 
B-|-8-8-8-8-8-8-8-8-8-8-8-8-8-8-8-8-7-7-7-7-7-7-7-7-7-7-7-7-7-7-7-7| 

Mute part :  
C#|--------------------------------| 
G#|--------------------------------| 
E-|--------------------------------| 
B-|--------------------------------| 
F#|--------------------------------| 
B-|-0-0-0-0-0-0-0-0-0-0-0-0-0-0-0-0| 
    * * * * * * * * * * * * * * * * 

C#|--------------------------------------| 
G#|--------------------------------------| 
E-|--------------------------------------| 
B-|--------------------------------------| X2 
F#|--------------------------------------| 
B-|-0-0-0-0-0-0-0-0-0-0-0-0-0-0-0-1-1-1-1| 
    * * * * * * * * * * * * * * * * * * * 

Riff 1 : 
C#|--------------------------------------| 
G#|--------------------------------------| 
E-|--------------------------------------| 
B-|-0-0-0-0-0-0-0-0-0-0-0-0-0-0-10-10-5-7|   X2 
F#|-0-0-0-0-0-0-0-0-0-0-0-0-0-0-10-10-5-7| 
B-|-0-0-0-0-0-0-0-0-0-0-0-0-0-0-10-10-5-7| 
    * * * * * * * * * * * * * * 

Main riff :  

C#|--------------------------------------------------------------------| 
G#|--------------------------------------------------------------------| 
E-|--------------------------------------------------------------------| 
B-|--------------------------------------------------------------------| 
F#|--------------------------------------------------------------------| 
B-|-0-0-12-12-12-10-12-0-0-0-12-12-12-10-12-0-0-12-12-12-12-10-10-10-10| 
                                                                         X2 
C#|----------------------------------------------------------------| 
G#|----------------------------------------------------------------| 
E-|----------------------------------------------------------------| 
B-|----------------------------------------------------------------| 
F#|----------------------------------------------------------------| 
B-|-5-5-5-5-5-5-5-5-5-5-5-5-5-5-5-5-7-7-7-7-7-7-7-7-2-2-2-2-3-3-3-3| 

Chorus :  
C#|--------------------------------------------------------------------| 
G#|--------------------------------------------------------------------| 
E-|--------------------------------------------------------------------| 
B-|-8-8-8-8-8-8-8-8-8-8-8-8-12-12-12-12-7-7-7-7-7-7-7-7-7-7-7-7-7-7-7-7| 
F#|-8-8-8-8-8-8-8-8-8-8-8-8-12-12-12-12-7-7-7-7-7-7-7-7-7-7-7-7-7-7-7-7| 
B-|-8-8-8-8-8-8-8-8-8-8-8-8-12-12-12-12-7-7-7-7-7-7-7-7-7-7-7-7-7-7-7-7| 
                                                                          X2 
C#|----------------------------------------------------------------| 
G#|----------------------------------------------------------------| 
E-|----------------------------------------------------------------| 
B-|-8-8-8-8-8-8-8-8-8-8-8-8-8-8-8-8-7-7-7-7-7-7-7-7-7-7-7-7-7-7-7-7| 
F#|-8-8-8-8-8-8-8-8-8-8-8-8-8-8-8-8-7-7-7-7-7-7-7-7-7-7-7-7-7-7-7-7| 
B-|-8-8-8-8-8-8-8-8-8-8-8-8-8-8-8-8-7-7-7-7-7-7-7-7-7-7-7-7-7-7-7-7| 

Riff 2 :  

C#|----------------------------------------------------------------| 
G#|----------------------------------------------------------------| 
E-|----------------------------------------------------------------| 
B-|-0------0------10-0---------------------------------------------| X4 
F#|-0-10-9-0-10-9----0-10-9----------------------------------------| 
B-|-0------0---------0------10-10-10-10-10-10-10-10-7-7-7-7-7-7-7-7| 

No gain guitar : 

C#|---------------------------------------------------------------------------------------------------------| 
G#|---------------------------------------------------------------------------------------------------------| 
E-|---------------------------------------------------------------------------------------------------------| 
B-|-8-8-8-8-8-8-8-8-8-8-8-12-12-12-10-10-7-7-7-7-7-7-7-7-7-7-7-7-7-7-7-7-8-8-8-8-8-8-8-8-8-8-8-8-8-8-8-8-7-7| 
F#|-8-8-8-8-8-8-8-8-8-8-8-12-12-12-10-10-7-7-7-7-7-7-7-7-7-7-7-7-7-7-7-7-8-8-8-8-8-8-8-8-8-8-8-8-8-8-8-8-7-7| 
B-|-8-8-8-8-8-8-8-8-8-8-8-12-12-12-10-10-7-7-7-7-7-7-7-7-7-7-7-7-7-7-7-7-8-8-8-8-8-8-8-8-8-8-8-8-8-8-8-8-7-7| 

Chorus :  
C#|--------------------------------------------------------------------| 
G#|--------------------------------------------------------------------| 
E-|--------------------------------------------------------------------| 
B-|-8-8-8-8-8-8-8-8-8-8-8-8-12-12-12-12-7-7-7-7-7-7-7-7-7-7-7-7-7-7-7-7| 
F#|-8-8-8-8-8-8-8-8-8-8-8-8-12-12-12-12-7-7-7-7-7-7-7-7-7-7-7-7-7-7-7-7| 
B-|-8-8-8-8-8-8-8-8-8-8-8-8-12-12-12-12-7-7-7-7-7-7-7-7-7-7-7-7-7-7-7-7| 
                                                                          X2 
C#|----------------------------------------------------------------| 
G#|----------------------------------------------------------------| 
E-|----------------------------------------------------------------| 
B-|-8-8-8-8-8-8-8-8-8-8-8-8-8-8-8-8-7-7-7-7-7-7-7-7-7-7-7-7-7-7-7-7| 
F#|-8-8-8-8-8-8-8-8-8-8-8-8-8-8-8-8-7-7-7-7-7-7-7-7-7-7-7-7-7-7-7-7| 
B-|-8-8-8-8-8-8-8-8-8-8-8-8-8-8-8-8-7-7-7-7-7-7-7-7-7-7-7-7-7-7-7-7| 

Main riff :  

C#|--------------------------------------------------------------------| 
G#|--------------------------------------------------------------------| 
E-|--------------------------------------------------------------------| 
B-|--------------------------------------------------------------------| 
F#|--------------------------------------------------------------------| 
B-|-0-0-12-12-12-10-12-0-0-0-12-12-12-10-12-0-0-12-12-12-12-10-10-10-10| 
                                                                         X2 
C#|----------------------------------------------------------------| 
G#|----------------------------------------------------------------| 
E-|----------------------------------------------------------------| 
B-|----------------------------------------------------------------| 
F#|----------------------------------------------------------------| 
B-|-5-5-5-5-5-5-5-5-5-5-5-5-5-5-5-5-7-7-7-7-7-7-7-7-2-2-2-2-3-3-3-3| 


There's probably some mistake , like one or two power chords too 

Thanks for reading \m/ 
		  

See also:

tabs Ira! - Poço de Sensibilidade (Solo - Acustico Mtv) tabs Deep Purple - Gypsy Kiss tabs Ira! - Envelheço na Cidade (intro) tabs Deep Purple - Smoke on the Water (solo) tabs Ira! - Eu Quero Sempre Mais (Com Pitty, intro) tabs Ira! - Prisão das Ruas
e-chords

Other versions:

tabs Dagoba - The Great Wonder
auto scroll beats size up size down change color hide chords drawings
tab show chords e-chords YouTube Clip e-chords hide all tabs e-chords go to top tab

share