Dag Nasty

The Godfather

Dag Nasty

tabs

by  ALYSLIMA

save to print version add songbook text version e-mail correct tuner
chordsukulelecavacokeyboardtabbassdrumsharmonicaflute Guitar Pro
close

there isn't a video lesson for this song

chords

The Godfather

	  		

Intro/Riff 1: 

e|--------------------------------------------------------------------------| 
B|-----5~4------5~4------5~4-----5~4----------------------------------------| 
G|-6~-----6-6~-----6-6~-----6-6~----6---------------------------------------| 
D|---6--------6-----6--6-----4--6-------------------------------------------| 
A|4--------4----------------------------------------------------------------| 
E|--------------------------------------------------------------------------| 

Riff 2: 

e|--------------------------------------------------------------------------| 
B|--4h5p4------4h5p4------4h5p4------4h5p4----------------------------------| 
G|-4-----4-6--4-----4-6--4-----4-6--4-----4-6-------------------------------| 
D|6----------6----------4----------4----------------------------------------| 
A|--------------------------------------------------------------------------| 
E|--------------------------------------------------------------------------| 

Rhythm Guitar 

Intro/Riff 1: 

e|--------------------------------------------------------------------------| 
B|--------------------------------------------------------------------------| 
G|6~------------------------------------------------------------------------| 
D|6~------------------7~----------------------------------------------------| 
A|4~------------------7~----------------------------------------------------| 
E|--------------------5~----------------------------------------------------| 

Riff 2 (Palm Muted): 



e|--------------------------------------------------------------------------| 
B|--------------------------------------------------------------------------| 
G|6-------------------------------------------------------------------------| 
D|6-x16---------------7-----------------------------------------------------| 
A|4-------------------7-x16-------------------------------------------------| 
E|--------------------5-----------------------------------------------------| 

Pre-Chorus: 

e|--------------------------------------------------------------------------| 
B|--------------------------------------------------------------------------| 
G|--------------------------------------------------------------------------| 
D|7~------7~----------------------------------------------------------------| 
A|7~------7~----------------------------------------------------------------| 
E|5~------5~----------------------------------------------------------------| 

Chorus: 

e|--------------------------------------------------------------------------| 
B|--------------------------------------------------------------------------| 
G|--------------------7~--------------------------------7~------------------| 
D|9~------------------7~---------------9~---------------7~------------------| 
A|9~------------------5~---------------9~---------------5~------------------| 
E|7~-----------------------------------7~-----------------------------------| 

Outro: 

e|--------------------------------------------------------------------------| 
B|--------------------------------------------------------------------------| 
G|6~------6-----6~----------------------------------------------------------| 
D|6~------6-x4--4~----------------------------------------------------------| 
A|4~------4-----4~----------------------------------------------------------| 
E|--------------------------------------------------------------------------| 
 
		  

See also:

tabs Blink 182 - Down tabs Blink 182 - Feeling This tabs Green Day - Good riddance(time of your life) tabs Blink 182 - Dammit tabs Social Distortion - Story Of My Life tabs Ramones - What A Wonderful World
e-chords

Other versions:

tabs Slash Snakepit - The Godfather tabs Dag Nasty - The Godfather tabs John Williams - The Godfather Theme tabs Slash - The Godfather Theme tabs Misc Soundtrack - The Godfather Theme (acoustic)
auto scroll beats size up size down change color hide chords drawings
tab show chords e-chords YouTube Clip e-chords hide all tabs e-chords go to top tab

share with facebook