Daft Punk

Harder, Better, Faster, Stronger

Daft Punk

tabs

by  FERNSANTANA

save to print version add songbook text version e-mail correct tuner
chordsukulelecavacokeyboardtabbassdrumsharmonicaflute Guitar Pro
close

there isn't a video lesson for this song

chords

Harder, Better, Faster, Stronger

Year: 2001 - Album: Discovery

	  		


00:51 
e-------------------------|---------------------------------| 
B-------------------------|--1s2-0--------------------------| 
G-------------------------|-----------2s4s2-----------------| 
D--------4--4-------7--7--|--------------------6-4----------| 
A-------------------------|-------------------------4-2-----| 
E--2--2--------5--5-------|---------------------------------| 


1:07 
e-------------------------|----------------------------------| 
B-------------------------|-----------------1s2-0------------| 
G-------------------------|---------2s4s2--------------------| 
D--------4--4-------7--7--|--4-2-----------------------------| 
A-------------------------|----------------------------------| 
E--2--2--------5--5-------|--------------------------2s4s2---| 


1:22 
e-------------------------|----------------------------------| 
B-------------------------|--1s2-0---------------------------| 
G-------------------------|-----------2s4s2------------------| 
D--------4--4-------7--7--|--------------------6-4-----------| 
A-------------------------|-------------------------4-2------| 
E--2--2--------5--5-------|----------------------------------| 


01:38 
e------------------------------------------------------------| 
B--------1s2-0-----------------------------------------------| 
G--------------------2s4s2---------------2--2----------------| 
D--------------4--4---------------6--4-----------------------| 
A----------------------------------------------4--2----------| 
E--2--2---------------------5--5-----------------------------| 


01:45 
e---------------------------------------------------------------| 
B-----------------------------------1s2-0-----------------------| 
G----------------------2s4s2---------------2--2-----------------| 
D--------2s4s2---4--4-------------------------------------------| 
A-----------------------------0--0------------------------------| 
E--2--2------------------------------------------2s4s2----------| 


01:53 
e---------------------------------------------------------------| 
B--------1s2-0--------------------------------------------------| 
G--------------------2s4s2---------------2--2-------------------| 
D--------------4--4---------------6--4--------------------------| 
A----------------------------------------------4--2-------------| 
E--2--2---------------------5--5--------------------------------| 


01:57 
e---------------------------------------------------------------| 
B---------------------------------------------------------------| 
G-------------------2--4--2---4s6s4--2-----------2--------------| 
D----------------4----------------------4--2--4-----4-----------| 
A-----0--2--0---------------------------------------------------| 
E--2------------------------------------------------------------| 


02:01 
e---------------------------------------------------------------| 
B---------------2-----------------------------------------------| 
G------------2-----2-----2-------------2-----4--2--1--2---------| 
D---------4-----------4-------------2-----2---------------------| 
A-----0---------------------------------------------------------| 
E--2-----------------------------0------------------------------| 


02:05 
e---------------7-------------------------------------------------| 
B---------7--------10-----4---------------------------------------| 
G------8-----8-------------------------2--------------------------| 
D----------------------4------------4-----------------------------| 
A--6--------------------------5--5--------------------------------| 
E-----------------------------------------2--2--2--2--------------| 


02:09 
e---------------------------------------------------------------| 
B---------------------------------------------------------------| 
G--------2-----4s6--4--2-----------2-----4s6--4--2--------------| 
D-----4-----4-------------4------2----4-------------4-----------| 
A---------------------------------------------------------------| 
E--2---------------------------0--------------------------------| 


02:13 
e---------------------------------------------------------------| 
B---------------------------------------------------------------| 
G--2--2----------------------2~~2~~------2~~2~~-----------------| 
D--------4--4----------------------4~~4~~------4~~4~~-----------| 
A--------------0--0---------------------------------------------| 
E--------------------2--2---------------------------------------| 


02:16 
e---------------------------------------------------------------| 
B---------------------------------------------------------------| 
G--------2-----4s6--4--2------------2-----4s6--4--2-------------| 
D---2--4-----4------------4----2--4----4-------------4----------| 
A---------------------------------------------------------------| 
E---------------------------------------------------------------| 


02:20 
e---------------7s9--7------------------------------------------| 
B-----7--10--7----------10--7-----------------------------------| 
G--9----------------------------------2--4----------------------| 
D-------------------------------2--4----------------------------| 
A---------------------------------------------------------------| 
E-------------------------------------------2--2--2--2----------| 


02:24 
e---------------7^-7--------------------------7^----------------| 
B-----7--10--7--------10--7~~-------7--10--7-----10-------------| 
G--9-----------------------------9~~----------------------------| 
D---------------------------------------------------------------| 
A---------------------------------------------------------------| 
E---------------------------------------------------------------| 


02:28 
e---------7b8b7---------------------------------------------------| 
B--7-10--7-----10-7-----------------------------------------------| 
G-9-----------------9--2----2--4----------------------------------| 
D---------------------4--4----4----4--2---------------------------| 
A-----------------------------------------------------------------| 
E----------------------------------------2--2---------------------| 


02:32 
e--7s9s7----------------------5s7s5----------------7b9b7-----| 
B--7s9s7-----------7-----7----5s7s5-----7--10--7-------------| 
G---------------9-----9--------------9-----------------------| 
D------------------------------------------------------------| 
A---------9--9-----------------------------------------------| 
E------------------------------------------------------------| 


02:36 
e--7p5-7p5-7p5-7p5-7p5-7p5---7^ 7^--7^-7------------------------| 
B-----7---7---7---7---7---7---------------7--7------------------| 
G---------------------------------------------------------------| 
D---------------------------------------------------------------| 
A-----------------------------------------------4--4------------| 
E-----------------------------------------------------2--2------| 


02:47 
e-----------------7^------------------7^------------------------| 
B----7-10-10-10-7----10~~------7--7-------10--------------------| 
G--9-------------------------9~~----9---------------------------| 
D---------------------------------------------------------------| 
A---------------------------------------------------------------| 
E---------------------------------------------------------------| 


02:52 
e-----------------------------------------7s9-7-----------------| 
B-----------------------------------------7s9-7---10------------| 
G---------------------------------------------------------------| 
D---------------------------------------------------------------| 
A------0-0-0---2b4b2-0--------0---2s4-2-------------------------| 
E--0-2-------2------------0h2---2-------------------------------| 


02:55 
e----------------------7s9--7-----------------------------------| 
B--7-----7----5s7--7----------7--7----7---7---------------------| 
G-----9-----6----------------------9----9-----------------------| 
D---------------------------------------------------------------| 
A---------------------------------------------------------------| 
E---------------------------------------------------------------| 


02:59 
e--5s7-5--------------------14-14-------------------------------| 
B--------5--7--5--7-5-7-------------11-11-----------------------| 
G---------------------------------------------------------------| 
D------------------------------------------4-4--4---------------| 
A---------------------------------------------------------------| 
E--------------------------------------------------2--2---------| 


03:03 
e--7s9s7----------------------5s7s5--------------------------| 
B--7s9s7-----------7-----7----5s7s5--------------------------| 
G---------------9-----9--------------5--4--2-----------------| 
D----------------------------------------------4---4--4------| 
A------------------------------------------------------------| 
E------------------------------------------------------------| 


03:07 
e---------------------------7^-----7---------7s9--7-------------| 
B------------------------------------10--10--7s9-----10---------| 
G---------------------------------------------------------------| 
D--4-----2------2s4--4------------------------------------------| 
A-----4-----4---------------------------------------------------| 
E---------------------------------------------------------------| 


03:10 
e-----------------------7^--7-----------------------------------| 
B--7-----7-----5s7--7---------7--7-----7----7-------------------| 
G-----9-----6-----------------------9----9----------------------| 
D---------------------------------------------------------------| 
A---------------------------------------------------------------| 
E---------------------------------------------------------------| 


03:14 
e--5^--5-------------------------14--14-------------------------| 
B---------5--7-------7--5-7--------------11--11-----------------| 
G----------------6----------------------------------------------| 
D-----------------------------------------------4-4--4----------| 
A---------------------------------------------------------------| 
E------------------------------------------------------2--2-----| 


03:18 
e--21-21-21-21-21-21--19-19-17-----21--19b21b19-19--17------------| 
B--19-19-19-19-19-19-----------19----------------------19---------| 
G-----------------------------------------------------------14-16-| 
D---------------------------------------------------------16------| 
A-----------------------------------------------------------------| 
E-----------------------------------------------------------------| 


03:22 
e---------------------------------------------------------------| 
B---------------------------------------------------------------| 
G--14-18pb16--14-16^16-14----------14---------------------------| 
D--------------------------14--16-------------------------------| 
A---------------------------------------------------------------| 
E---------------------------------------------------------------| 


03:25 
e---------------------------------------------------------------| 
B---------------------------------------------------------------| 
G-18-18-18-16b18b16---16-14-------------------------------------| 
D-18-18-18------------------16----------------------------------| 
A---------------------------------------------------------------| 
E---------------------------------------------------------------| 


03:26 
e---------------------------------------------------------------| 
B---------------------------------------------------------------| 
G-5--4--2--------------2----------------------------------------| 
D----------4-----2--4-----4-------------------------------------| 
A---------------------------------------------------------------| 
E---------------------------------------------------------------| 


03:30 
e--7^-7--5------------------------------------------------------| 
B-----------7---------------------------------------------------| 
G---------------------------------------------------------------| 
D-----------------------------------4--4------------------------| 
A-----------------0--0--2--2------------------------------------| 
E-----------------------------2--2------------------------------| 


03:34 
e----------------8---7--5-----------------------------5---------| 
B----------------8---------7--------------------5--7-----7------| 
G-4s6-4-2------------------------------2------------------------| 
D----------4---------------------2--4-----4---------------------| 
A---------------------------------------------------------------| 
E---------------------------------------------------------------| 


03:38 
e--7^-7--5------------------------------------------------------| 
B-----------7---------------------------------------------------| 
G----------------4^-4--2----------------------------------------| 
D-------------------------4------4--4--4--4---------------------| 
A---------------------------------------------------------------| 
E--------------------------------------------2--2--2--2---------| 
		  

auto scroll beats size up size down change color hide chords drawings
tab show chords e-chords YouTube Clip e-chords hide all tabs e-chords go to top tab

share