Cypress Hill

Valley Of Chrome

Cypress Hill

tabs

save to print version add songbook text version e-mail correct tuner
chordsukulelecavacokeyboardtabbassdrumsharmonicaflute Guitar Pro
close

there isn't a video lesson for this song

chords

Valley Of Chrome

	  		Cypress Hill - Valley of Chrome 
 
Tabbed by: Jason - c0z420 
email: [email protected] 
 
Song in dropped-D tuning (DADGBE). 
 
Use distortion troughout the whole song. 
 
INTRO/Verse: 
Let last note ring ~~ 
E|-----------6~~~-------| 
B|--6---5---------------| 
G|----------------------| 
D|----------------------| 
A|----------------------| 
D|----------------------| 
 
Chorus: 
E|-----------------------------| 
B|-----------------------------| 
G|-----------------------------| 
D|--0-77-0-66-0-33-xxx-555-5---| 
A|--0-77-0-66-0-33-xxx-555-5---| 
D|--0-77-0-66-0-33-xxx-555-5---| 
 
Bridge: (sounds like palm muting DAD strings open) 
E|----------000---| 
B|----------000---| 
G|----------000---| 
D|--0-00-0--------| 
A|--0-00-0--------| 
D|--0-00-0--------| 
pm  . .. . 
 
There are other parts to this song, the bridge is probably wrong, 
but it sorta sounds like a bunch of noice and bass from the  
drum trigger.  I put this tab on here as a building 
block for people to work off of, im not saying its correct 
but its not bad for having nothing on here.  Comments, 
corrections, just email me. 
 

		  

auto scroll beats size up size down change color hide chords drawings
tab show chords e-chords YouTube Clip e-chords hide all tabs e-chords go to top tab

share