Cypress Hill

Cant Get The Best Of Me

Cypress Hill

tabs

save to print version add songbook text version e-mail correct tuner
chordsukulelecavacokeyboardtabbassdrumsharmonicaflute Guitar Pro
close

there isn't a video lesson for this song

chords

Cant Get The Best Of Me

	  		Tabbed By: defsrage ([email protected]) 
 
This is a great song written by Cypress Hill and is played with 2 guitars, so i tabbed each guitar bit... May not be 100% correct, but sounds right to me.   
 
 
Tuning: Standard (e, a, d, g, b, e) 
 
Main Riff 
e||------------------------------------------------- 
b||------------------------------------------------- 
g||------------------------------------------------- 
d||------------------------------------------------- 
a||-11-11-11-11-11-11-11-11---11-11-11-11-11-11-11-- 
e||-9--9--9--9--9--9--9--9----9--9--9--9--9--9--9--- 
    |------------------| 
	     P.M. 
 
Chorus Part 1 
e||--------------------------------------------------------------------------------- 
b||--------------------------------------------------------------------------------- 
g||--------------------------------------------------------------------------------- 
d||-6-6-6-6-6-6-6-x-x-x-x-6-6-6-6-6-6-6-x-x-x-x-9-9-9-9-9-9-9-x-x-x-x-9-9-9-9-9-9-9- 
a||-4-4-4-4-4-4-4-x-x-x-x-4-4-4-4-4-4-4-x-x-x-x-7-7-7-7-7-7-7-x-x-x-x-7-7-7-7-7-7-7- 
e||--------------------------------------------------------------------------------- 
 
Chorus Part 2 (sort the rhythm yourself) 
e||------------------------------------------------------------- 
b||------------------------------------------------------------- 
g||------------------------------------------------------------- 
d||------------------------------------------------------------- 
a||-4-4-4-4-6-6-6-6-7-7-7-7-11-11-11-11-10-10-10-10-10-10-10-10- 
e||------------------------------------------------------------- 
 
Bridge 
e||--------------------------             |------ 
b||--------------------------             |------ 
g||-------------------------- x4 end with |------   
d||---------------2-3-4-4----             |------ 
a||-4-4-4-4-4-4-4------------             |--4--- 
e||-2-2-2-2-2-2-2------------             |--2--- 
    |------------| 
         P.M. 
 
Outro Part 1 
e||------------------------------ 
b||------------------------------ 
g||------------------------------ 
d||------5p4p0-------5p4p0------- 
a||--4-4-------4-4-4------------- 
e||------------------------------ 
 
Outro Part 2 (This part may not be correct, but sounds ok) 
e||------------------------------ 
b||------------------------------ 
g||------------------------------ x2 
d||--5-5-5-5-7-7-7-5-5----------- 
a||------------------------------ 
e||------------------------------ 
 
End 
e||--------------------------------- 
b||--------------------------------- 
g||--------------------------------- 
d||--------------------------------- 
a||-7-7-7-7-7-7-7-7--7-7-7-7-7-7-7-- 
e||-5-5-5-5-5-5-5-5--5-5-5-5-5-5-5-- 
 
 
Structure 
main x8 
chorus 1 x2 
chorus 2 x2 (chorus 1 x2 - guitar 2) 
main x8 
chorus 1 x2 
chorus 2 x2 (chorus 1 x2 - guitar 2) 
bridge x4 
main x6 (feedback from guitar that played bridge) 
outro 1 x6 
outro 2 x2 
outro 1 x2 
outro 2 x2 
outro 1 x2 
outro 2 x2 
outro 1 x2 
outro 2 x2 
outro 1 x2 
outro 2 x2 
outro 1 x2 
end x1 
 
any questions / comments, email [email protected] 
 

		  

auto scroll beats size up size down change color hide chords drawings
tab show chords e-chords YouTube Clip e-chords hide all tabs e-chords go to top tab

share