Cueio Limão

Maçarico Love Song

Cueio Limão

tabs Easy easy

by  DEIO.PUNXXX

save to print version add songbook text version e-mail correct tuner
chordsukulelecavacokeyboardtabbassdrumsharmonicaflute Guitar Pro
close

there isn't a video lesson for this song

chords

Maçarico Love Song

	  		Legenda:  ~  vibrato ou deixe soar 
          /  slide crescente 
          \  slide decrescente 
          .  acorde abafado 
          x  corda abafada 
      BREAK  parada instantânea da guitarra, sobrando só o vocal 
 
Intro: 
 
Guita 1 
 
e|---------------------------------------------| 
B|---------------------------------------------| 
G|---------------------------------------------| 
D|--7-7-7-6-6-6-6-4-4-4-2-2-2-2-------2-2-2-2--| 
A|--5-5-5-4-4-4-4-2-2-2-0-0-0-0-5-5-5-0-0-0-0--| 
E|------------------------------3-3-3----------| 
 
e|--------------------------------------------------| 
B|--------------------------------------------------| 
G|--------------------------------------------------| 
D|--7-7-7-7-7-7-7-4-4-4-4-4-4-4-------4-4-4-4-7-7-7-| 
A|--5-5-5-4-4-4-4-2-2-2-0-0-0-0-5-5-5-0-0-0-0-5-5-5-| 
E|------------------------------3-3-3---------------| 
 
Guita 2 
 
e|---------------------------------------------| 
B|---------------------------------------------| 
G|---------------------------------------------| 
D|--7-7-7-7-7-7-7-4-4-4-4-4-4-4-------4-4-4-4--| 
A|--5-5-5-5-5-5-5-2-2-2-2-2-2-2-5-5-5-2-2-2-2--| 
E|------------------------------3-3-3----------| 
 
e|------------------------------------------------------------| 
B|------------------------------------------------------------| 
G|--------------------------------------------9-9-9-11-11-11--| 
D|--7-7-7-7-7-7-7-4-4-4-4-4-4-4-------4-4-4-4-x-x-x-x--x--x---| 
A|--5-5-5-4-4-4-4-2-2-2-0-0-0-0-5-5-5-0-0-0-0-7-7-7-9--9--9---| 
E|------------------------------3-3-3-------------------------| 
 
 
Refrão ( toq duas vezes mas na segunda sem o break ): 
"Faço tuuuudo por ela..." 
 
Guita 1 
 
e|--------------------------------------------------------| 
B|------------------------------------------------------B-| 
G|--7-7-7-7-7-6-6-6-6-6-4-4-4-4-4-----------------------R-| 
D|--7-7-7-7-7-6-6-6-6-6-4-4-4-4-4-7-7-7-7-7-5-5-5-5-5-7-E-| 
A|--5-5-5-5-5-4-4-4-4-4-2-2-2-2-2-7-7-7-7-7-5-5-5-5-5-7-A-| 
E|--------------------------------5-5-5-5-5-3-3-3-3-3-5-K-| 
 
Guita 2 
 
e|--------------------------------------------------------| 
B|------------------------------------------------------B-| 
G|------------------------------------------------------R-| 
D|--7-7-7-7-7-7-7-7-7-7-4-4-4-4-4-4-4-4-4-4-----------4-E-| 
A|--5-5-5-5-5-4-4-4-4-4-2-2-2-2-2-0-0-0-0-0-5-5-5-5-5-0-A-| 
E|------------------------------------------3-3-3-3-3---K-| 
 
 
Verso: 
 
As duas guitas na msm coisa 
 
e|-------------------------------------------|_ 
B|-------------------------------------------| \  
G|----------------------7-7-7-7-7------------| | 
D|--4-4-4-4-4-5-5-5-5-5-7-7-7-7-7-7-7-7-7-7--| |---quatro vezes 
A|--4-4-4-4-4-5-5-5-5-5-5-5-5-5-5-7-7-7-7-7--| | 
E|--2-2-2-2-2-3-3-3-3-3-----------5-5-5-5-5--|_/ 
 
 
Interlúdio ( eh quase tda no baixo ): 
"Só uma coisa me consola..." 
 
Guita 1 ( ela fik s/ distorção, limpa ) 
 
e|---------|-------------| 
B|---------|-------------| 
G|---------|-------------| 
D|---------|-------------| 
A|--4---5--|--5-4-----5--| 
E|---------|-------------| 
           |_____________| 
                  |_________cinco vezes 
 
Guita 2 ( ela entra na parte do "Maçarico Love Sooooooooon ..." 
 
e|-----------------------| 
B|-----------------------| 
G|-----------------------| 
D|--6-6-6-6-6-7-7-7-7-7--| 
A|--6-6-6-6-6-7-7-7-7-7--| 
E|--4-4-4-4-4-5-5-5-5-5--| 
    . . . . . . . . . . 
 
 
Último refrão ( eh akele msm lance da segunda vez naum usá o break ): 
 
Guita 1 
 
e|--------------------------------------------------------| 
B|------------------------------------------------------B-| 
G|--7-7-7-7-7-6-6-6-6-6-4-4-4-4-4-----------------------R-| 
D|--7-7-7-7-7-6-6-6-6-6-4-4-4-4-4-7-7-7-7-7-5-5-5-5-5-7-E-| 
A|--5-5-5-5-5-4-4-4-4-4-2-2-2-2-2-7-7-7-7-7-5-5-5-5-5-7-A-| 
E|--------------------------------5-5-5-5-5-3-3-3-3-3-5-K-| 
 
Guita 2 
 
e|--------------------------------------------------------------------------------| 
B|------------------------------------------------------------------------------B-| 
G|--7-7-7-7-7-9-9-9/11-11-6-6-6-6-6-4-4-4-4-4-7-7-7-9-9-9/11-11-11-11\7\5-5-5-7-R-| 
D|--x-x-x-x-x-x-x-x/x--x--x-x-x-x-x-x-x-x-x-x-x-x-x-x-x-x/x--x--x--x-\x\x-x-x-x-E-| 
A|--5-5-5-5-5-7-7-7-9--9--4-4-4-4-4-2-2-2-2-2-5-5-5-7-7-7/9--9--9--9-\5\3-3-3-5-A-| 
E|------------------------------------------------------------------------------K-| 
 
 
Final: 
 
e|-----------| 
B|-----------| 
G|--6~---7~--| 
D|--6~---7~--| 
A|--4~---5~--| 
E|-----------| 
 
 
Ordem: 
 
Intro 
Refrão 
Verso 
Refrão 
Verso 
Refrão 
Interlúdio 
Refrão 
Último refrão 
Final 
 
 
O que uma mulher faz na sala ? Turismo... 
		  

See also:

tabs Forfun - Minha Formatura tabs Nx Zero - Razoes e emoçoes tabs Nx Zero - Razões e emoções (acústica) tabs Nx Zero - Tudo Passa tabs Strike - Paraíso Proibido tabs Cueio Limão - Cair e Levantar
e-chords

Other versions:

tabs Cueio Limão - Maçarico Love Song
auto scroll beats size up size down change color hide chords drawings
tab show chords e-chords YouTube Clip e-chords hide all tabs e-chords go to top tab

share