Crowbar

Isolation Desperation

Crowbar

tabs

by  PAULANTUNES

save to print version add songbook text version e-mail correct tuner
chordsukulelecavacokeyboardtabbassdrumsharmonicaflute Guitar Pro
close

there isn't a video lesson for this song

chords

Isolation Desperation

	  		Intro/Outro riff (both parts played at same time) 
e|---------------------------------------------------------------------------| 
B|---------------------------------------------------------------------------| 
G|---------------------------------------------------------------------------| 
D|-2--/7-\4-/12--/5-/7-/9--9-9-11-11-5-5-------------------------------------| 
A|-3--/9-\5-/12--/7-/9-/10-7-7-9--9--3-2-------------------------------------| 
E|-------------------------7-7-9--9------------------------------------------| 

Verse 
e|---------------------------------------------------------------------------| 
B|---------------------------------------------------------------------------| 
G|---------------------------------------------------------------------------| 
D|-10\9-------5/7-----------------------9---7--------------------------------| 
A|-8-\7-9\7---3/5-7\5---10\9-7/9-7/8-88-7-7-5---3/5-5------------------------| 
E|------7\5-0-----5\3-0-8\-7-5/7-5/6-66---5-5-0-5/6-6------------------------| 

Chorus 
e|---------------------------------------------------------------------------| 
B|---------------------------------------------------------------------------| 
G|---------------------------------------------------------------------------| 
D|222-2-2-3b-222-2-2-3b-4-3-2-3-222-2-2-3b-222-2-2--7-8----------------------| 
A|222-2-2----222-2-2----2-1-0-1-222-2-2----222-2-2--5-8----------------------| 
E|000-0-0----000-0-0----2-1-0-1-000-0-0----000-0-0--5-6----------------------| 


Outro riff                              Outro riff 2nd ending 
e|---------------------------------------|------------------------------------| 
B|---------------------------------------|------------------------------------| 
G|------------------4------4-2---2-------|---9--------------------------------| 
D|2-2-------5-4-3/4-2-4-3------5---4b-2--|-7-7--------------------------------| 
A|2-2-4-5-4-3-2-1/2-2-2-1----------------|-5-7--------------------------------| 
E|0-0-2-3-2------------------------------|-5----------------------------------| 


************************************ 

| /  Slide up 
| \  Slide down 
| b  Bend 

************************************ 
		  

See also:

tabs Scalene - Milhares Como Eu tabs Deep Purple - Never A Word tabs Deep Purple - Smoke On The Water (Intro + solo 01) tabs Ira! - Flerte Fatal (intro e solo) tabs Deep Purple - Deep Purple - Smoke On The Water tabs Deep Purple - Burn
e-chords

Other versions:

tabs Crowbar - Isolation Desperation
auto scroll beats size up size down change color hide chords drawings
tab show chords e-chords YouTube Clip e-chords hide all tabs e-chords go to top tab

share