Crosby, Stills, Nash & Young

4 And 20

Crosby, Stills, Nash & Young

tabs Beginner beginner

by  GARRYPALACE

save to print version add songbook text version e-mail correct tuner
chordsukulelecavacokeyboardtabbassdrumsharmonicaflute Guitar Pro
close

there isn't a video lesson for this song

chords

4 And 20

	  		 v = vibrato 

Intro: 

this, 
e--------5v------------3v-------2-------------------2------| 
B-------------7v------------5v----------3-----0---------3v-| 
G-----------------------------------------------2----------| 
D-----------------0-----------0-------------0-----0--------| 
A----------------------------------------------------------| 
D-----0-----0---0---0-----0-----0-----0---0---0------------| 
then this. 
e--5--------------3--------------2--------------------2------| 
B-----------7--------------5--------------3-----0---------3v-| 
G-------------------------------------------------2----------| 
D-----0-0-----0-0----0-0-----0-0----0-0-----0-0-----0--------| 
A------------------------------------------------------------| 
D--0------0-------0------0-------0------0-------0------------| 


Verse: 

keep going with this, 
e--5--------------3--------------2--------------------2------| 
B-----------7--------------5--------------3-----0---------3v-| 
G-------------------------------------------------2----------| 
D-----0-0-----0-0----0-0-----0-0----0-0-----0-0-----0--------|  x2 
A------------------------------------------------------------| 
D--0------0-------0------0-------0------0-------0------------| 
then: 
e-------------------------------8v----8v----8v------| 
B-1--------1-----0--------0--------10v--10v---10v---| 
G----2-------2------2-------2-----------------------|  x3 
D------0-------0------0-------0------0-----------0--| 
A---------------------------------------------------| 
D-3------3-------5------5-------0-----------0-------| 

Four and twenty years ago, I come into this life, 
the son of a woman and a man who lived in strife. 
He was tired of bein' poor, 
and he wasn't into sellin' door to door, 
and he worked like the devil to be more. 
(intro) 
A different kind of poverty now upsets me so; 
night after sleepless night, I walk the floor and I want to know, 
why am I so alone? 
Where is my woman, can I bring her home? 
Have I driven her away? Is she gone? 
(intro) 
Morning comes the sunrise and I'm driven to my bed. 
I see it is empty and there's devils in my head. 

I embrace the many-colored beast. 
I grow weary of the torment can there be no peace? 
And I find myself just wishing that my life would simply cease.
		  

See also:

tabs Gretchen Wilson - Here For The Party tabs Hank Williams Jr - A Country Boy Can Survive tabs Crosby, Stills, Nash & Young - Suite Judy Blue Eyes tabs George Strait - Desperately tabs Dueling Banjos - Dueling Banjos tabs Alan Jackson - Summer Time Blues
e-chords

Other versions:

tabs Crosby, Stills, Nash & Young - 4 And 20
auto scroll beats size up size down change color hide chords drawings
tab show chords e-chords YouTube Clip e-chords hide all tabs e-chords go to top tab

share with facebook