Cristiane Carvalho

Pela via

Cristiane Carvalho

tabs

by  MARCUS_ZULU

save to print version add songbook text version e-mail correct tuner
chordsukulelecavacokeyboardtabbassdrumsharmonicaflute Guitar Pro
close

there isn't a video lesson for this song

chords

Pela via

	  		e|-----------0--0--2--4-----4-2--------------------| 
B|---------0--------------3--------3-1-0---------0-| 
G|-------0--------------2-------2--------2-0-2/3---| 
D|-----0--------------3-------0--------------------| 
A|---0---------------------------------3---------3-| 
B|-0-----------------------------------------------| 
 
e|-0-2-4-----4-2-----4-0--0--2/3-5-5-5-0-3--3-2-5-3-2-0--------0-| 
B|---------3-------3------------------------------------4--4/5---| 
G|-------2-------2-----------------------------------------------| 
D|-----3-------0-------------------------------------------------| 
A|---------------------3--3--------------------------------------| 
B|---------------------------------------------------------------| 
 
e|-0--2--4-----4-2--------------------0-2-4-----4-2-----4-0-| 
B|-----------3--------3-1-0---------0---------3-------3-----| 
G|---------2-------2--------2-0-2/3---------2-------2-------| 
D|-------3-------0------------------------3-------0---------| 
A|------------------------3---------3---------------------3-| 
B|----------------------------------------------------------| 
 

		  

auto scroll beats size up size down change color hide chords drawings
tab show chords e-chords YouTube Clip e-chords hide all tabs e-chords go to top tab

share