Criolo

Pegue Pra Ela

Criolo

tabs nolevel nolevel

by  GUSTSILVA

save to print version add songbook text version e-mail correct tuner
chordsukulelecavacokeyboardtabbassdrumsharmonicaflute Guitar Pro
close

there isn't a video lesson for this song

chords

Pegue Pra Ela

	  		---------------------------------------| (11x) 
-----1010----------------88------------| 
--99-------9-7-5------99-----9-7-5-----| 
---------------------------------------| 
---------------------------------------| 
---------------------------------------| 

-----------------------------------5\--| 
-----1010----------------88--------5\--| 
--99-------9-7-5------99-----9-7-5-----| 
---------------------------------------| 
---------------------------------------| 
---------------------------------------| 

----15(p)14----| 
---------------| 
---------------| 
---------------| 
---------------| 
---------------| 

------------------------------------------------------| 
------------------------------------------------------| 
--11--9--7-----5--4--------11--9--7-----5--7--4-------| 
--11--9--7-----5--4--5-----11--9--7-----5--7--4-------| 
--9---7--5-----3--2--5-----9---7--5-----3--5--2-------| 
---------------------3--------------------------------| 

-----------------------------------------------|---------|-----------| 
-----------------------------------------------|---------|-----------| 
-----------------------------------------------|-1211-911|-1211-97---| 
----------------------------9-7-----1097-91012-|---------|-----------| 
-----------7-5----975-79-10----10--------------|---------|-----------| 
--753-57-8----8--------------------------------|---------|-----------| 

--------------------------| 
--8-10-------10-8---------| 
---9----975----9---975----| 
--------------------------| 
--------------------------| 
--------------------------| 
		  

See also:

tabs Fábio Júnior - Alma Gêmea tabs Seu Jorge - Bola de Meia tabs Waldir Azevedo - Brasileirinho tabs Waldir Azevedo - Brasileirinho (versão 2) tabs Caetano Veloso - Luz do Sol tabs Waldir Azevedo - Carioquinha
e-chords

Other versions:

tabs Criolo - Pegue Pra Ela
auto scroll beats size up size down change color hide chords drawings
tab show chords e-chords YouTube Clip e-chords hide all tabs e-chords go to top tab

share with facebook