Creedence Clearwater Revival

Up Around The Bend (ver. 2) Tab

Creedence Clearwater Revival

Difficulty: nolevelnolevel

tuner correct add songbook print version text version save to e-mail
chordsukulelecavacokeyboardtabbassdrumsharmonicsflute Guitar Pro
close

there isn't a video lesson for this song

chords

Up Around The Bend (ver. 2)

  		TITLE- Up Around The Bend 
ARTIST-Creedence Clearwater Revival 
ALBUM-Chronicles Volume 1 
 
INTRO- 
 
e---------------10--------------------------------------| 
b--------------------10--------10-----------------------| 
g-------9h11--------------11----------------------------| 
d---0---------------------------------------------------| 
a-------------------------------------------------------| 
E-------------------------------------------------------| 
 
e---------------10--------------------------------------| 
b--------------------10--------10-----------------------| 
g-------9h11--------------11----------------------------| 
d---0---------------------------------------------------| 
a-------------------------------------------------------| 
E-------------------------------------------------------| 
 
e--------------5----------------------------------------| 
b------------------5--------5---------------------------| 
g-------4h6------------6--------------------------------| 
d-------------------------------------------------------| 
a---0---------------------------------------------------| 
E-------------------------------------------------------| 
 
e---------------10--------------------------------------| 
b--------------------10--------10-----------------------| 
g-------9h11--------------11----------------------------| 
d---0---------------------------------------------------| 
a-------------------------------------------------------| 
E-------------------------------------------------------| 
 
Play that three times. 
 
    D     A   A7   G 
e---2-----0----3---3------------------------------------| 
b---3-----2----2---0------------------------------------| 
g---2-----2----2---0------------------------------------| 
d---0-----2----2---0------------------------------------| 
a---------0----0---2------------------------------------| 
E------------------3------------------------------------| 
 
VERSE- 
 
D 
There's a place up ahead I'm going 
A                   A7       D 
just as fast as my feet can fly 
D 
Come away, come away if you're going 
A                  A7    D 
leave the sinking ship behind 
 
CHORUS- 
 
G            D      A 
Come on the rising wind 
       G        D          A 
We're going up around the bend, Woooooooh 
 
INTERLUDE- 
 
e---------------10--------------------------------------| 
b--------------------10--------10-----------------------| 
g-------9h11--------------11----------------------------| 
d---0---------------------------------------------------| 
a-------------------------------------------------------| 
E-------------------------------------------------------| 
 
e---------------10--------------------------------------| 
b--------------------10--------10-----------------------| 
g-------9h11--------------11----------------------------| 
d---0---------------------------------------------------| 
a-------------------------------------------------------| 
E-------------------------------------------------------| 
 
e--------------5----------------------------------------| 
b------------------5--------5---------------------------| 
g-------4h6------------6--------------------------------| 
d-------------------------------------------------------| 
a---0---------------------------------------------------| 
E-------------------------------------------------------| 
 
e---------------10--------------------------------------| 
b--------------------10--------10-----------------------| 
g-------9h11--------------11----------------------------| 
d---0---------------------------------------------------| 
a-------------------------------------------------------| 
E-------------------------------------------------------| 
 
Play that three times after the third verse chorus. 
 
As for the lead parts in the song towards the end, any suggestions are welcomed. 
 
Any questions or comments just contact me at [email protected] Enjoy! 
 

	  

Full key step upFull key step up
Half key step upHalf key step up
Half key step downHalf key step down
Full key step downFull key step down
auto scroll beats size up size down change color hide chords drawings
tab show chords e-chords YouTube Clip e-chords hide all tabs e-chords go to top tab

share with facebook

Search Paypal