Creedence Clearwater Revival

home > Creedence Clearwat...

Up around the bend (intro) Tab

Creedence Clearwater Revival

Difficulty: EasyEasy

by CarlosBruxel

tuner correct add songbook print version text version save to e-mail
chordsukulelecavacokeyboardtabbassdrumsharmonicsflute Guitar Pro
chords

Up around the bend (intro)

  		Intro:3x 
 
|----------10--------------| 
|--------------10------10--| 
|-----11-----------11------| 2x 
|--0-----------------------| 
|--------------------------| 
|--------------------------| 
 
|------5-------------------| 
|--------5-----5-----------| 
|----6------6--------------| 
|--------------------------|  1x 
|--0-----------------------| 
|--------------------------| 

	  

Search Paypal
auto scroll beats size up size down change color hide chords drawings
tab show chords e-chords YouTube Clip e-chords hide all tabs e-chords go to top tab