Creedence Clearwater Revival

home > Creedence Clearwat...

Up Around The Bend Tab

Creedence Clearwater Revival

Difficulty: BeginnerBeginner

tuner correct add songbook print version text version save to e-mail
chordsukulelecavacokeyboardtabbassdrumsharmonicsflute Guitar Pro
chords

Up Around The Bend

  		
Intro:  
E---------10---------------------------10-----------------------------5----------------------10----------------  
B-------------10-----10--------------------10------10---------------------5-----5----------------10----10------  
G------/11--------11---------------/11---------11-----------------/6---------6------------/11--------11--------  
D-0~~-------------------------0~~-----------------------------------------------------0~~----------------------  
A------------------------------------------------------------0~~-----------------------------------------------  
E--------------------------------------------------------------------------------------------------------------  

  
  
E-----------------------------------------------------------------------------------------------------  
B-----------------------------------------------------------------------------------------------------  
G------7-9--9b10b9p7-----------------9-----------------7-9--9b10b9p7------------------9---------------  
D--/9------------------9--7~~-----9b10b9p7~~-------/9------------------9--7~~------9b10b9p7~~---------  
A-----------------------------------------------------------------------------------------------------  
E----------------------------------------------------------------------------------------------------- 

  
E----------------------------------------------------------------  
B----------------------------------------------------------------  
G----------------------------------------------------------------  
D--9^9^9b7~~-----------------------------------------------------  
A----------------------------------------------------------------  
E----------------------------------------------------------------  
guitar solo  
  
  
E------5-----5-----5-----------------5------5------------------------  
B--6h7---6h7---6h7---7~~---------6h7----6h7----7---------------------  
G-------------------------------------------------7~~----------------  
D--------------------------------------------------------------------  
A--------------------------------------------------------------------  
E--------------------------------------------------------------------  
  


	  

Search Paypal
auto scroll beats size up size down change color hide chords drawings
tab show chords e-chords YouTube Clip e-chords hide all tabs e-chords go to top tab