Creedence Clearwater Revival

home > Creedence Clearwat...

Ramble Tamble Tab

Creedence Clearwater Revival

Difficulty: BeginnerBeginner

by hugo%5Frodrigues

tuner correct add songbook print version text version save to e-mail
chordsukulelecavacokeyboardtabbassdrumsharmonicsflute Guitar Pro
chords

Ramble Tamble

  		
Intro: 

e|-------------------| 
B|---------------5-3-| 
G|---------------5-4-| 
D|---------3-3-------| 8x 
A|-----3-5-----5-----| 
D|-0-0---------------| 


Main rhythm pattern: 

e|---2--0-2--0-2--2--0-2---| 
B|---3--0-3--0-3--3--0-3---| 
G|---2--0-2--0-2--2--0-2---| 
D|---0--0-0--0-0--0--0-0---| 
A|-------------------------| 
D|-------------------------| 


Bridge: 

e|------------------| 
B|------------------| 
G|----------2-2-2-2-| 
D|----------0-0-0-0-| 3x 
A|------------------| 
D|-/3-/3-0----------| 

e|----------------------| 
B|----------------------| 
G|--------------2-2-2-2-| 
D|--------------0-0-0-0-| 7x 
A|-/3-2-0---------------| 
D|--------2b3-0---------| 

e|-----------------| 
B|------------3----| 
G|------------2----| 
D|------------0----| 
A|-/3-2-0-----0----| 
D|--------2b3-0----| 


Instrumental: 

e|---------0-------|---------------3-|-----2------|-3------2---| 
B|-------1---1-----|-------1-----3---|-----3------|-3------3---| 
G|-----2-----------|-----0-----0-----|---2------2-|------2-----| 
D|---2-------------|---2-------------|-0------0---|----0-------|  
A|-0-----------0-2-|-3-------2-------|------------|------------| 
D|-----------------|-----------------|------------|------------| 

Solo: 

e|-----------------------|-----------------------|------------------------| 
B|-----------------------|-----------------------|--------------12--10----| 
G|-5/9---b11-r9--9--9----|-5/9---b11-r9--9--9----|-5/9-------12-----------| 
D|-----------------------|-----------------------|------------------------| 
A|-----------------------|-----------------------|------------------------| 
D|-----------------------|-----------------------|------------------------| 

e|---------------------------------|-----------------------|--------------| 
B|-7/13---13-13p12h13p12h13p12-10--|-8-8\7--7\5--5\3-------|--------------| 
G|---------------------------------|------------------5----|-5--4--7------| 
D|---------------------------------|-----------------------|--------------| 
A|---------------------------------|-----------------------|--------------| 
D|---------------------------------|-----------------------|--------------| 

e|-----------------------|----------------------| 
B|-----------------------|----------------------| 
G|-5/9---b11-r9--9--9----|-5/9---9/12---11------| 
D|-----------------------|----------------------| 
A|-----------------------|----------------------| 
D|-----------------------|----------------------| 


e|-----------------------|----------------------| 
B|-----------------------|----------------------| 
G|-5/9---b11-r9--9--9----|-5/9---9/12---11------| 
D|-----------------------|----------------------| 
A|-----------------------|----------------------| 
D|-----------------------|----------------------| 

e|-----------------------|-----------------------| 
B|-----------------------|-----------------------| 
G|-5/9---b11-r9--9--9----|-5/9---b11-r9--9--9----| 
D|-----------------------|-----------------------| 
A|-----------------------|-----------------------| 
D|-----------------------|-----------------------| 

e|-----------------------| 
B|-----------------------| 
G|-5/9---b11-r9--9--9----| 
D|-----------------------| 
A|-----------------------| 
D|-----------------------| 

Then: 

e|---------------------------|------------------------| 
B|---------------------------|------------------------| 
G|---------------------------|------------------------| 
D|-0-0-0-0-0-0-0-0-----------|-0-0-0-0-0-0-0-0-/3-2-0-| 2x 
A|-----------------/3-2------|------------------------| 
D|----------------------/3-0-|------------------------| 

e|---2--0-2--0-2--2--0-2---| 
B|---3--0-3--0-3--3--0-3---| 
G|---2--0-2--0-2--2--0-2---| 
D|---0--0-0--0-0--0--0-0---| 2x 
A|-------------------------| 
D|-------------------------| 

e|------------2---| 
B|-3--3--3----3---| 
G|-2--2--2----3---| 
D|-0--0--0----0---| 4x 
A|-3--2--0--------| 
D|-----------0----| 

e|--------------------------| 
B|-------3------------------| 
G|-1--0--2------------------| 
D|-0--0--0------------------| 3x 
A|-3--2--0--------0-/3-2-0--| 
D|------------0-3---------0-| 

Then play the last verse and end with: 

e|------------------| 
B|------------------| 
G|----------2-2-2-2-| 
D|----------0-0-0-0-| 3x 
A|------------------| 
D|-/3-/3-0----------| 

e|----------------------| 
B|----------------------| 
G|--------------2-2-2-2-| 
D|--------------0-0-0-0-| 7x 
A|-/3-2-0---------------| 
D|--------2b3-0---------| 

e|-----------------|-0---------------| 
B|------------3----|-1---------------| 
G|------------2----|-2---------------| 
D|------------0----|-0---------------| 
A|-/3-2-0-----0----|-0---------------| 
D|--------2b3-0----|-----------0-----|  
	  

Search Paypal
auto scroll beats size up size down change color hide chords drawings
tab show chords e-chords YouTube Clip e-chords hide all tabs e-chords go to top tab