Creedence Clearwater Revival

home > Creedence Clearwat...

Lookin' Out My Back Door (intro/outro) Tab

Creedence Clearwater Revival

Difficulty: EasyEasy

by Ibandez

tuner correct add songbook print version text version save to e-mail
chordsukulelecavacokeyboardtabbassdrumsharmonicsflute Guitar Pro
chords

Lookin' Out My Back Door (intro/outro)

  		This is the little intro lick: 
 
 
e-|---3-------3----|--1------------------|----------------|----------| 
B-|----------------|----------3--1-------|--3----3-----1--|----------| 
G-|----------------|-----------------3---|----------------|-3--------| 
D-|----------------|---------------------|----------------|----------| 
A-|----------------|---------------------|----------------|----------| 
E-|----------------|---------------------|----------------|----------| 
 
 
Now the similar lick that is played at the end: 
 
 
e|--5-----5-----|-3----0----|--0---0------|-----| 
B|--------------|---------1-|----------3--|1----| 
G|--------------|-----------|-------------|-----| 
D|--------------|-----------|-------------|-----| 
A|--------------|-----------|-------------|-----| 
E|--------------|-----------|-------------|-----| 

	  

Search Paypal
auto scroll beats size up size down change color hide chords drawings
tab show chords e-chords YouTube Clip e-chords hide all tabs e-chords go to top tab