Creedence Clearwater Revival

home > Creedence Clearwat...

Green Rivier Tab

Creedence Clearwater Revival

Difficulty: BeginnerBeginner

tuner correct add songbook print version text version save to e-mail
chordsukulelecavacokeyboardtabbassdrumsharmonicsflute Guitar Pro
chords

Green Rivier

  		TITLE-Green River 
ARTIST-Creedence Clearwater Revival 
ALBUM- Chronicles Volume 1 
 
INTRO- 
 
e------------------------------------------------------| 
b------/3--3--3--3---/3--3--3--3-----------------------| 
g------/4--4--4--4---/4--4--4--4--0h2--0---------------| 
d-----------------------------------------0h2-2------0-|  
a------------------------------------------------0h2---| 
E--0---------------------------------------------------| 
 
e------------------------------------------------------| 
b--------------------/3--3--3--3-----------------------| 
g--------------------/4--4--4--4-----------------------| 
d--2--2-------0--2-------------------------------------|   
a--------0h2-------------------------------------------| 
E------------------------------------------------------| 
 
VERSE- 
 
e------------------------------------------------------| 
b---/3--3--3--3----------------------------------------| 
g---/4--4--4--4--0h2--0--------------------------------| 
d------------------------0h2--2------0-2--2-------0--2-|   
a--------------------------------0h2----------0h2------| 
E------------------------------------------------------| 
 
e----------0-------------------------------------------| 
b----------------/3--3--3--3--/3--3--3--3--------------| 
g-----3b4--------/4--4--4--4--/4--4--4--4--2--0--------| 
d---2---------2----------------------------------------| 
a------------------------------------------------------| 
E------------------------------------------------------| 
 
e--0--0------------------------------------------------| 
b--3--3------------------------------------------------| 
g--1--1------------------------------------------------| 
d--2--2------------------------------------------------| 
a--2--2------------------------------------------------| 
E--0--0------------------------------------------------| 
 
e-------0----0--0-------0----5---5\--------------------| 
b-------1----3--1-------1----5---5\--------------------| 
g-------0----0--0-------0----5---5\--------------------| 
d------------2--2------------7---7\--------------------| 
a--3---------3--3---3--------7---7\--------------------| 
E----------------------------5---5\--------------------| 
 
e------------------------------------------------------| 
b-----2-----2--2--2------------------------------------| 
g-----2--2--2--2--2------------------------------------| 
d------------------------------------------------------| 
a--0------------------0--0--1--2-----------------------| 
E------------------------------------------------------| 
 
e----------0--------------------------------0----------| 
b----------------/3--3--3--3--/3--3--2-----------------| 
g-----3b4--------/4--4--4--4--/4--4-----0h1------------| 
d---2---------2-------------------------------0h2-0h2--| 
a------------------------------------------------------| 
E------------------------------------------------------| 
 
e----------0--------------------------------0----------| 
b----------------/3--3--3--3--/3--3--2-----------------| 
g-----3b4--------/4--4--4--4--/4--4-----0h1------------| 
d---2---------2----------------------------------------| 
a------------------------------------------------------| 
E------------------------------------------------------| 
 
CHORUS- 
 
E 
Love to kick my feet way down to shallow water 
C                                        A 
shoe-fly, dragonfly get back to mother.  Pick up a flat rock 
A                   E 
skip it across Green River. 
 
e---------------------0------------------0-------------| 
b--------------/3--3--3--3--/3--3--3--3--5-------------| 
g--------------/4--4--4--4--/4--4--4--4--4-------------| 
d------------------------------------------------------| 
a--0--1--2---------------------------------------------| 
E-----------0------------------------------------------| 
 
SOLO- 
 
e--0----0----------------------------------------------| 
b--5b-----3--0-----------------------------------------| 
g--------------2--0----3b3--2--0-----------------------| 
d-------------------2------------2--0--2---------------| 
a------------------------------------------------------| 
E------------------------------------------------------| 
 
e------------------------------------------------------| 
b------------------------------------------------------| 
g------------------------------------------------------| 
d--2b3-2b3-2b3-2b3-0-3b4-3b4-2--0----------------------| 
a---------------------------------2--0--2--------------| 
E------------------------------------------------------| 
 
2nd Guitar comes in, plays this in intervals throughout the solo. 
 
e-----------10-11-12b----------------------------------| 
b------------------------------------------------------| 
g------------------------------------------------------| 
d------------------------------------------------------| 
a------------------------------------------------------| 
E------------------------------------------------------| 
 
e------------------------------------------------------| 
b------------------------------------------------------| 
g---------0------2b3-2-0---------------2-0-------------| 
d----0h2----0h2----------2---0h2-0h2-2-2-2-------------| 
a--3-----------------------0---------------------------| 
E------------------------------------------------------| 
 
e----------------------0---------------0---------------| 
b------------/3--3--3--3--/3--3--3--3--5---------------| 
g--2b3p2-0---/4--4--4--4--/4--4--4--4--4---------------| 
d--2-------2-------------------------------------------| 
a------------------------------------------------------| 
E------------------------------------------------------| 
 
VERSE- 
 
e------0-----7--7--7--7--0--0--------------------------| 
b--/3--3-----8--8--8--8--0--0--2-------0---------------| 
g--/4-----------------------------0h1------------------| 
d--------2---------------------------------------------| 
a------------------------------------------------------| 
E------------------------------------------------------| 
 
e------------------------------------------------------| 
b------------------------------------------------------| 
g------------------------------------------------------| 
d-----0h2-0h2-0h2-0------------------------------------| 
a------------------------------------------------------| 
E------------------------------------------------------| 
 
e-----------------0------------------0-----------------| 
b----------/3--3--3--3--/3--3--3--3--5-----------------| 
g----------/4--4--4--4--/4--4--4--4--4-----------------| 
d------------------------------------------------------| 
a--0-1-2-----------------------------------------------| 
E--------0---------------------------------------------| 
 
OUTRO- 
 
e--0----0----------------------------------------------| 
b--5b-----3--0-----------------------------------------| 
g--------------2--0----3b3--2--0-----------------------| 
d-------------------2------------2--0--2---------------| 
a------------------------------------------------------| 
E------------------------------------------------------| 
 
e---10-11-12-12----------------------------------------|X2 
b---------------15-12----------------------------------| 
g---------------------14-12----------------------------| 
d---------------------------14-------------------------| 
a------------------------------------------------------| 
E------------------------------------------------------| 
 
e-7-7-7--7-7-7-7---7-7-0-0-0-----0-7b--7b--------------| 
b-8-8-8--8-8-8-8-8-8-8-0-----3-0---8b--8b--------------| 
g----------------9-------------------------------------| 
d------------------------------------------------------| 
a------------------------------------------------------| 
E------------------------------------------------------| 
 
That's the end, quite the tab for a 2 and a hlaf minute song eh? Any questions or comments are encouraged.  Peace out! 
 

	  

Full key step upFull key step up
Half key step upHalf key step up
Half key step downHalf key step down
Full key step downFull key step down
Search Paypal
auto scroll beats size up size down change color hide chords drawings
tab show chords e-chords YouTube Clip e-chords hide all tabs e-chords go to top tab