Creedence Clearwater Revival

home > Creedence Clearwat...

Born On The Bayou Solo Tab

Creedence Clearwater Revival

Difficulty: IntermediateIntermediate

by Londero%5F

tuner correct add songbook print version text version save to e-mail
chordsukulelecavacokeyboardtabbassdrumsharmonicsflute Guitar Pro
chords

Born On The Bayou Solo

(John Fogerty)

  		Creedence Clearwater Revival  
Born to Bayou  
    

INTRO X4  
|------||--------------------|------------------||  
|------||-----5--------5-----|----5--------5----||  
|------||:------7--------7---|------7--------7-:||  
|------||:--6--------6-------|--6--------6-----:||  
|-2/7--||--------------------|------------------||  
|------||--------------------|------------------||  

SOLO 1  

|--------------------|---------------------||  
|--------------------|---------------------||  
|--2~-------2-1-2-1--|--2-1-2-1-2-1-2-1----||  
|--------------------|------------------2--||  
|--------------------|---------------------||  
|--------------------|---------------------||  

|--------------------|-------0-----------0-||  
|--------------------|-----3-----------3---||  
|--1-2-1-2-1-----1-2-|-2/4-----2-1-2/4-----||  
|--------------2-----|---------------------||  
|--------------------|---------------------||  
|--------------------|---------------------||  

|--------------------|---------------------||  
|--------------------|---------------------||  
|--2-1-2-1-2-1-2-1-2-|-1-------------------||  
|--------------------|----2----2~----------||  
|--------------------|---------------------||  
|--------------------|---------------------||  

SOLO 2  

|--2/4---4--4---2--4-|--2---2-2/4---------||  
|--3/5---5--5---3--5-|--3---5-3/5---------||  
|--------------------|---------------------||  
|--------------------|---------------------||  
|--------------------|---------------------||  
|--------------------|---------------------||  

|--2/4---4--4---2--5-|-4---2---4\2---------||  
|--3/5---5--5---3--5-|-5---3---5\3---------||  
|--------------------|---------------------||  
|--------------------|---------------------||  
|--------------------|---------------------||  
|--------------------|---------------------||  

|--2/4---4--4---2--4-|--2---2-2/4---------||  
|--3/5---5--5---3--5-|--3---5-3/5---------||  
|--------------------|---------------------||  
|--------------------|---------------------||  
|--------------------|---------------------||  
|--------------------|---------------------||  

|---2---2-----0--0---|--0----4--2--0-------||  
|---3---3-----2--2---|--0------------------||  
|--------------------|---------------------||  
|--------------------|---------------------||  
|--------------------|---------------------||  
|--------------------|---------------------||  

|---2---2-----0--0---|--0----4--2--0-----0-||  
|---3---3-----2--2---|--0-------------3----||  
|--------------------|---------------------||  
|--------------------|---------------------||  
|--------------------|---------------------||  
|--------------------|---------------------||  

|---2---2-----0--0---|--0------4--2--0-----||  
|---3---3-----2--2---|--0------------------||  
|--------------------|---------------------||  
|--------------------|---------------------||  
|--------------------|---------------------||  
|--------------------|---------------------||  

|--------------------|---------------------||  
|---3---3-----2--2---|---0-----------------||  
|---2---2-----2--2---|---1-----------------||  
|--------------------|---------------------||  
|--------------------|---------------------||  
|--------------------|---------------------||  

SOLO 3 X2  

|------------|-------------------------||  
|------------|-------------------------||  
|------------|-------------------------||  
|--2-----2---|-----2--2-----2--2---2---||  
|-----2------|--2--------2-------2-----||  
|----------0-|-----------------------0-||  

|-----------------------||-----------1-||  
|-----------------------||-----------2-||  
|-----------------------||------2-2--2-||   
|-----2--2-----2----2---||-2-2--2-2----||  
|--2--------2----2------||-3-3--2-2----||  
|---------------------0-||-2-2---------||  

Repetir Intro  

Espero q tenha Ajudado  
qlqr coisa email-me [email protected]  

Bruno Bertagnolli Londero 2007  


	  

Search Paypal
auto scroll beats size up size down change color hide chords drawings
tab show chords e-chords YouTube Clip e-chords hide all tabs e-chords go to top tab