Creed

One Last Breath (ver. 2)

Creed

tabs Beginner beginner

save to print version add songbook text version e-mail correct tuner
chordsukulelecavacokeyboardtabbassdrumsharmonicaflute Guitar Pro
close

there isn't a video lesson for this song

chords

One Last Breath (ver. 2)

	  		 
-Introdução: 
 
    D               A                  Bm                G 
e|--2---5---0h2---------------------------------------------------3--| 
B|--------------3-------2-3h5--2h3-2-------3---2h3p2-----------3-----| 
G|----------------2----2-------------2-4-------------4------0---2----| 
D|--0-0---0-------------------------------------------4----0-0-------| 
A|------------------0-----0----------0-2-2---2-----------------------| 
E|-------------------------------------------------------3-----------| 
 
    D                   A                  Bm           G 
e|--2-2---3---2-0h2p0---------------------------2------------3--------| 
B|-----------------------------2-2h3p2-2----------3------------3------| 
G|---------------------------2-----------2----4-----4------0-----0----| 
D|----0-0---0--------------2-----------------4-4------4---0-0------0--| 
A|--------------------4-0------------------2--------------------------| 
E|------------------------------------------------------3-------------| 
 
Continue tocando com a música: 
 
 Please come now, I think I?m falling, 
 I?m holding on to all I think is safe 
 It seems I found the road to nowhere 
 and I?m trying to escape 
 
 I yelled back when heard thunder, 
 but I?m down to one last breath 
 And with it let me say... Let me say 
 
 
Refrão: 
 
D        F#       Bm                G 
 Hold me now, I?m six feet from the edge and I?m thinking 
D       F#             Bm     G 
 Maybe six feet, Ain?t so far down 
 
 
Repita a Intro e depois continue tocando com a música: 
 
 I?m looking down, now that it?s over, reflecting on all of my mistakes 
 I thought I found the road to somewhere, somewhere in his grace 
 
 I cried out ?heaven save me?, but I?m down to one last breath 
 And with it let me say... Let me say 
 
 
Refrão 2x 
       Bm     G 
       Bm     G 
 Ain?t so far down 
 Em       Bm     D                  A            Bm                 G 
 Sad eyes follow me, but I still believe there?s something left for me 
    Em          Bm        D 
 So please come stay with me 
                   A            Bm                 G 
 ?Cause I still believe there?s something left for you and me 
                                  D    F#    Bm    G 
 For you and me... For you and me  
D        F#       Bm                G 
 Hold me now, I?m six feet from the edge and I?m thinking 
 
 
Refrão 2x 
 
 
Toque esta parte junto com o final da música: 
 
    D               A                  Bm                  G 
e|--2---5---0h2--------------------------------------------------------3p2--| 
B|--------------3-------2-3h5--2h3-2-------3---2h3p2---------------3--------| 
G|----------------2---2--------------2-4--------------4--------0-----2------| 
D|--0-0---0---------------------------------------------4----0---0----------| 
A|------------------0-----0----------0-2-2---2------------------------------| 
E|---------------------------------------------------------3----------------| 
 
 Please come now, I think I?m falling, I?m holding on all I think is safe 
 
_______________________________________________________ 
Contribuição: Luiz Vieira Lemes([email protected]) 

		  

Full key step upFull key step up
Half key step upHalf key step up
Half key step downHalf key step down
Full key step downFull key step down
hide glossary

See also:

tabs Blue Oyster Cult - Dont Fear The Reaper tabs Guns N' Roses - Nightrain tabs Guns N' Roses - You Could Be Mine tabs Guns N' Roses - November Rain (Ver. Acoustic) tabs Guns N' Roses - Civil War tabs Guns N' Roses - Don't Cry
e-chords

Other versions:

tabs Creed - One Last Breath tabs Creed - One Last Breath (ver. 2) tabs Creed - One Last Breath (ver. 3) tabs Creed - One last breathe
auto scroll beats size up size down change color hide chords drawings
tab show chords e-chords YouTube Clip e-chords hide all tabs e-chords go to top tab

share