Cradle of Filth

home > Cradle of Filth

Wester Vespertine Tab

Cradle of Filth

Difficulty: nolevelnolevel

by adalgomes

tuner correct add songbook print version text version save to e-mail
chordsukulelecavacokeyboardtabbassdrumsharmonicsflute Guitar Pro
chords

Wester Vespertine

  		
D|--0--0--0--0-----18b19-16----16--------| 
A|--5--7--9--11-------------19----19b20--| 
F|---------------------------------------| 
C|---------------------------------------| 
G|---------------------------------------| 
D|---------------------------------------| 

D|--------16-18----16----------------------18--| 
A|--16-19-------19----16-19----16----16-19-----| 
F|--------------------------18----18-----------| 
C|---------------------------------------------| 
G|---------------------------------------------| 
D|---------------------------------------------| 

D|--------16171921------------181921-22b23b24--21--| 
A|--161719--------------181921---------------------| 
F|-------------------------------------------------| 
C|-------------------------------------------------| 
G|-------------------------------------------------| 
D|-------------------------------------------------| 

D|--19p18------------------------------------------------------------| 
A|-------19----------------------------------------------------------| 
F|---------18-16-15-16p15--------------------------------------------| 
C|-----------------------16------------------------------------------| 
G|-------------------------16-14-13-13-14-16-7-9-11-9gracenoteto11---| 
D|-------------------------------------------------------------------| 

D|--------------------------------------16--| 
A|--------------------------------161719----| 
F|-----------11-15-16-13----151618----------| 
C|--------13--------------------------------| 
G|--11-14-----------------------------------| 
D|------------------------------------------| 

D|----16--18--19--19--21--23--21--23--24-24b-21sustain--| 
A|--16--16--16--19--19--19--21--21--21------------------| 
F|------------------------------------------------------| 
C|------------------------------------------------------| 
G|------------------------------------------------------| 
D|------------------------------------------------------| 



************************************ 

| b  Bend 
| p  Pull-off 


************************************ 
	  

Search Paypal
auto scroll beats size up size down change color hide chords drawings
tab show chords e-chords YouTube Clip e-chords hide all tabs e-chords go to top tab