Crackout

Over My Head

Crackout

tabs nolevel nolevel

by  VSWORLD

save to print version add songbook text version e-mail correct tuner
chordsukulelecavacokeyboardtabbassdrumsharmonicaflute Guitar Pro
close

there isn't a video lesson for this song

chords

Over My Head

	  		Main Riff (x12) 
G|---------------------------| 
D|---------------------------| 
A|-2-2-2-2----------5-5-5-5--| 
E|--------2-2-2-2/-(5)-------| 

 Chorus         (x4)                         (x3) 
G|------------------------------------------------------------------| 
D|------------------------------------------------------------------| 
A|---------5-5-5-5-2-2-2-2--------------------------5-5-5-5-5-5-5-5-| 
E|-3-3-3-3----------------2-2-2-2---3-3-3-3-3-3-3-3-----------------| 

G|-----------------| 
D|-----------------| 
A|-----------------| 
E|-3-3-3-3-3-3-3-3-| 

 Main Riff (x6) 
G|-------------------------| 
D|-------------------------| 
A|-2-2-2-2---------5-5-5-5-| 
E|--------2-2-2-2/(5)------| 

 Chorus         (x4)                         (x3) 
G|------------------------------------------------------------------| 
D|------------------------------------------------------------------| 
A|---------5-5-5-5-2-2-2-2--------------------------5-5-5-5-5-5-5-5-| 
E|-3-3-3-3----------------2-2-2-2---3-3-3-3-3-3-3-3-----------------| 

G|-----------------| 
D|-----------------| 
A|-----------------| 
E|-3-3-3-3-3-3-3-3-| 

 Outro 
G|-------------------------------| 
D|-------------------------------| 
A|----------------5-5-5-5--------| 
E|-3-3-3-3-3-3-3-3-------5-5-5-5-| 



************************************ 

| (n)  Ghost note 
| /    Slide up 

************************************ 
		  

See also:

tabs Deep Purple - Sometimes a Feel Like Screaming tabs Deep Purple - Mistreated tabs Deep Purple - Smoke on the Water (ver. 2) tabs Ira! - Vitrine Viva tabs Doa - Sexyest Girl tabs Deep Purple - Ted The Mechanic
e-chords

Other versions:

tabs Lit - Over my head tabs Powderfinger - Over My Head tabs Sum 41 - Over My Head tabs Elen Levon - Over My Head tabs Coal Chamber - Over My Head tabs Crackout - Over My Head
auto scroll beats size up size down change color hide chords drawings
tab show chords e-chords YouTube Clip e-chords hide all tabs e-chords go to top tab

share with facebook