Courage My Love

Barricade

Courage My Love

tabs

by  DEIVCAVALCANTI

save to print version add songbook text version e-mail correct tuner
chordsukulelecavacokeyboardtabbassdrumsharmonicaflute Guitar Pro
close

there isn't a video lesson for this song

chords

Barricade

	  		


Intro (2x) & Verse (2x) 
 D#|-----------------------------------------------------------------|  
 A#|--5----5--5--5----6--6----5----5--5--5----6--6-------------------|  
 F#|--5----5--5--5----5--5----5----5--5--5----5--5----10---10-10-10--|  
 C#|--3----3--3--3----3--3----0----0--0--0----0--0----10---10-10-9---|  
 G#|--3----3--3--3----3--3----0----0--0--0----0--0----8----8--8--8---|  
 C#|--3----3--3--3----3--3----0----0--0--0----0--0----8----8--8--8---|  

---------------------------------| 
---------------------------------| 
-10-10---5----5--5---------------| 
-10-10---3----3--3--0-2-3---2-3--| 
-8--8----3----3--3--------2------|  
-8--8----3----3--3---------------| 


Pre-Chorus: 
 D#|----------------------------------|  
 A#|----------------------------------|  
 F#|--10---10-10---10-10---10-9--10---|   2x 
 C#|--8----x--x----8--8----x--x--x----|  
 G#|--8----8--8----8--8----8--7--8----|   
 C#|--8------------8--8---------------|  

 D#|----------------------------------------------------|  
 A#|----------------------------------------------------|  
 F#|--12---10-10---12-12---10-9--10---12--12--12--12----|    
 C#|--10---x--x----10-10---x--x--x----10--10--10--10----|  
 G#|--10---8--8----10-10---8--7--8----10--10--10--10----|   
 C#|--10-----------10-10--------------10--10--10--10----|  

Chorus (2x): 
 D#|--------------------------------------------------------|  
 A#|--------------------------------------------------------|  
 F#|--10---10-10---10-10-10-10------------------------------|  
 C#|--10---10-10---10-10-10-10---8----8--8----8--8--8--8----|  
 G#|--8----8--8----8--8--8--8----5----5--5----5--5--5--5----|   
 C#|--8----8--8----8--8--8--8----5----5--5----5--5--5--5----|  

 D#|--------------------------------------------------------|  
 A#|--1----1--1----1--1--1--1----5----5--5----5--5--5--5----|  
 F#|--2----2--2----2--2--2--2----5----5--5----5--5--5--5----|  
 C#|--0----0--0----0--0--0--0----3----3--3----3--3--3--3----|  
 G#|--0----0--0----0--0--0--0----3----3--3----3--3--3--3----|   
 C#|--0----0--0----0--0--0--0----3----3--3----3--3--3--3----|  

Post-Chorus (2x) & Bridge (4x): 
 D#|--------------------------------------------------------9-------9-------9----|  
 A#|-----------------10------10------10---------------10------10------10---------|  
 F#|------------10------10------10-----------------10----10------10------10------|  
 C#|--8--8----8----8-------8-------8-------0--0----------------------------------|  
 G#|--8--8---------------------------------0--0----------------------------------|   
 C#|--8--8---------------------------------0--0----------------------------------|  

Before the bridge, there is a different riff at the end of the intro: 
 D#|-------------------------------|  
 A#|-------------------------------|  
 F#|-------------------------------|  
 C#|----0-2-3---2-3---------2-3----|  
 G#|----------3-----------3--------|   
 C#|----------------0-2-3----------|  
		  

auto scroll beats size up size down change color hide chords drawings
tab show chords e-chords YouTube Clip e-chords hide all tabs e-chords go to top tab

share