Counterparts

Witness

Counterparts

tabs

by  MARCNAGEL

save to print version add songbook text version e-mail correct tuner
chordsukulelecavacokeyboardtabbassdrumsharmonicaflute Guitar Pro
close

there isn't a video lesson for this song

chords

Witness

Key:  C More
Witness Key GG
Witness Key G#G#
Witness Key AA
Witness Key A#A#(one step down)
Witness Key BB(half step down)
Witness Key CC(original key)
Witness Key C#C#(half step up)
Witness Key DD(one step up)
Witness Key D#D#
Witness Key EE
Witness Key FF
Witness Key F#F#
	  		

Tuning: Drop C G C F A D

* = Palm Mute 
b = bend 
p = Pull off 
h = Hammer on 
~ = vibrato 
x = Dead note 
t = tremolo pick 
/ = slide 
|-----------------------------------|x2 
|-----------------------------------| 
|999999997777777774444444444444444--| 
|xxxxxxxxxxxxxxxxxxxxxxxxxxxxxxxxx--| 
|777777775555555552222222222222222--| 
|-----------------------------------| 

|------------0--0-------00000000------------------| 
|-------3------3--3-----00000000------------------| 
|4~~2----4------4--4----55555555------------------| 
|-----------------------444444444b4b4b4b4b4b4b4b4b| 
|-------------------------------------------------| 
|-------------------------------------------------| 

0:22-0:32 
|----------------------------| 
|----------------------------| 
|4b--------------------------| 
|--------------77779999------| 
|--------------77779999------| 
|--------------55557777------| 

After that it's: 
|-------------------------------| 
|-------------------------------| 
|9----4b---4b---9---4b----------| 
|x-2------------x-2----77779999-| 
|7-2-----3---3--7-2----77779999-| 
|--2--------------2----55557777-| 


|-------------------------------------| 
|-------------------------------------| 
|9----4b---4b---9----4b---4b----------| 
|x-2------------x-2-------------7----9| 
|7-2----3----3--7-2-----3---3---7----9| 
|--2--------------2-------------5----7| 

|---0-------------------------------------------------------| 
|---0-------------------------------------------------------| 
|---0-------------------------------------------------------| 
|---2-----------------9-------------------------------------| 
|---2-----------0h9h10-10------------3--3------3--3--xxxx-x-| 
|------------------------------------0--0------0--0--xxxx-x-| 

Repeat beginning: 
|-----------------------------------|x2 
|-----------------------------------| 
|999999997777777774444444444444444| 
|xxxxxxxxxxxxxxxxxxxxxxxxxxxxxxxxx| 
|777777775555555552222222222222222| 
|---------------------------------| 

|------------0--0-------00000000------------------| 
|-------3------3--3-----00000000------------------| 
|4~~2----4------4--4----55555555------------------| 
|-----------------------444444444b4b4b4b4b4b4b4b4b| 
|-------------------------------------------------| 
|-------------------------------------------------| 

|-------------------------------| 
|-------------------------------| 
|9----4b---4b---9---4b----------| 
|x-2------------x-2----77779999-| 
|7-2-----3---3--7-2----77779999-| 
|--2--------------2----55557777-| 

|-------------------------------------| 
|-------------------------------------| 
|9----4b---4b---9----4b---4b----------| 
|x-2------------x-2-------------7----9| 
|7-2----3----3--7-2-----3---3---7----9| 
|--2--------------2-------------5----7| 

High Lead at 1:40 
It is kind of like a tremolo sweep picking up and down on the strings. 
|0t--------------0t------------------------0t--| 
|----3t------3t------3t-----------------3t-----| 
|--------4t--------------4t---------4t---------| 
|----------------------------5t-4t-------------| 
|----------------------------------------------| 
|----------------------------------------------| 

|------------------0--| 
|------------------0--| 
|------------------0--| 
|--7--9----5--5----2--| 
|--7--9----5--5----2--| 
|--5--7----3--2----0--| 

|-0--------0----| 
|--3--------3---| 
|---4--------4--| 
|----5-4------4-| 
|---------------| 
|---------------| 

C|---------------| 
G|-3333-3333-3333| 
C|-0000-0000-0000| 

|----------------------------------------------------------------------| 
|----------------------------------------------------------------------| 
|-----4-----4------4----4----4-----------------------------------------| 
|-----0-----0------0----0----0-----------------------------------------| 
|--0003--0003------3----3----3------3333-3333----3333-3333-3333-3333-3-| 
|--000---000----000--000--000---12/-0000-0000----0000-0000-0000-0000-0-| 


|------------------------------------------------------------| 
|------------------------------------------------------------| 
|-----4-----4------4----4----4--4b---4b------4----4----4--4b-| 
|-----0-----0------0----0----0---------------0----0----0-----| 
|--0003--0003------3----3----3----3-----3----3----3----3-----| 
|--000---000----000--000--000-------------000--000--000------| 


 
		  

auto scroll beats size up size down change color hide chords drawings
tab show chords e-chords YouTube Clip e-chords hide all tabs e-chords go to top tab

share