Counterparts

Wither

Counterparts

tabs

by  ROBEPOIEL

save to print version add songbook text version e-mail correct tuner
chordsukulelecavacokeyboardtabbassdrumsharmonicaflute Guitar Pro
close

there isn't a video lesson for this song

chords

Wither

Key:  C More
Wither Key GG
Wither Key G#G#
Wither Key AA
Wither Key A#A#(one step down)
Wither Key BB(half step down)
Wither Key CC(original key)
Wither Key C#C#(half step up)
Wither Key DD(one step up)
Wither Key D#D#
Wither Key EE
Wither Key FF
Wither Key F#F#
	  		

|--------------------------------------------------------------------| 
|--------------------------------------------------------------------| 
|--------------------------------------------------------------------| 
|-77-7-7-777-7-7-55-5-5-555-5-5-55555--55-5-5-555-5-5-33-3-3-333-3-3-| 
|-88-8-8-888-8-8-88-8-8-888-8-8-88888--88-8-8-888-8-8-77-7-7-777-7-7-| 
|--------------------------------------------------------------------| 
                                ***** 
|--------------------------------------------------------------| 
|--------------------------------------------------------------| 
|--------------------------------------------------------------| 
|-77-7-7-777-7-7-55-5-5-555-5-5--55-5-5-555-5-5-33-3-3-333-3-3-| 
|-88-8-8-888-8-8-88-8-8-888-8-8--88-8-8-888-8-8-77-7-7-777-7-7-| 
|--------------------------------------------------------------| 

|-----------------------|-----|--------| 
|-----------------------|-----|--------| 
|-----------------------|-9---|--------| 
|-7---5---5---7---5---5-|--5--|--10----| 
|-0---3---3---0---3---3-|---8-|-8--8-7-| 
|-0---3---2---0---3---2-|-----|--------| 


|-------------------------------------------------| 
|-------------------------------------------------| 
|-1414-14-14-141414-14-14-1212-12-12-121212-12-12-| 
|-x-x--x--x--x-x-x--x--x--x-x--x--x--x-x-x--x--x--| 
|-1212-12-12-121212-12-12-1010-10-10-101010-10-10-| 
|-------------------------------------------------| 

|----------------------------------------------| 
|----------------------------------------------| 
|-1212-12-12-121212-12-12-1010-10-10-10-99-9-9-| 
|-x-x--x--x--x-x-x--x--x--x-x--x--x--x--xx-x-x-| 
|-1010-10-10-101010-10-10-8-8--8--8--8--77-7-7-| 
|----------------------------------------------| 

|-----------------------------------------------------| 
|-----------------------------------------------------| 
|-1414-14-14-141414-14-14-1212-12-12-12-1717-17-17-17-| 
|-x-x--x--x--x-x-x--x--x--x-x--x--x--x--x-x--x--x--x--| 
|-1212-12-12-121212-12-12-1010-10-10-10-1515-15-15-15-| 
|-----------------------------------------------------| 

|-----------------------------------------------| 
|-----------------------------------------------| 
|-1212-12-12-12-1717-17-17-1010-10-10-10-99-9-9-| 
|-x-x--x--x--x--x-x--x--x--x-x--x--x--x--xx-x-x-| 
|-1010-10-10-10-1515-15-15-8-8--8--8--8--77-7-7-| 
|-----------------------------------------------| 

|-------------------------------------------------------| 
|-6-6-6-6b-6b-6b-6-6-----5----------0-------------------| 
|-9-9-9-9b-9b-9b-9-9-------3-2------10-----(1212121212)-|
|---------------------8--------8-10----10-8(x-x-x-x-x-)-| 
|---------------------8--------8-10--------(1010101010)-| 
|---------------------8--------8-10---------------------| 

|--------------------------------------| 
|----------6-6----------5-----------0--| 
|-----------9-------2-3-------------10-| 
|-8-10-0-0----10--8-------8-10-8-10----| 
|-8-10-0-0--------8-------8-10---------| 
|-8-10-0-0--------8-------8-10---------| 
       * 

|----------------------------------------------------------| 
|----------------------------------------------------------| 
|-------12/1010101010101010---------12\1010101010\9/10\9\5-| 
|-0-0-0-x--x-x-x-x-x-x-x-x--000-0-0-x--x-x-x-x-x--x-x--x-x-| 
|-0-0-0-10/8-8-8-8-8-8-8-8--000-0-0-10\8-8-8-8-8-\7/8-\7\3-| 
|-0-0-0---------------------000-0-0------------------------| 
                            *** 

|--(0-0)-8-----------12-------------------------| 
|---5-6--------------13-------------------------| 
|---------------9-10--------12\1010101010101010-| 
|-8--------8-10---------0-0-x--x-x-x-x-x-x-x-x--| 
|-8--------8-10---------0-0-10\8-8-8-8-8-8-8-8--| 
|-8--------8-10---------0-0---------------------| 

|---------3-3-----0-0-----| 
|---------6-6-----6-6-----| 
|---------5-5-----5-5-----| 
|-000-0-0-3-3-3-3-3-3-3-3-| 
|-000-0-0-----3-3-----3-3-| 
|-000-0-0-----3-3-----3-3-| 
  *** 

|-----------------------------------------------------------------------| 
|-13----13----13----13--------------------------------------------------| 
|---16----16----16----16-----14--14---16--16---14--14-17/14-----16--17/-| 
|-----15----15----15----15-15--15---17--17---15--15--------15-17--17----| 
|-----------------------------------------------------------------------| 
|-----------------------------------------------------------------------| 
    * *   * *   * *   * *  * * * *  * * * *  * * * *       *  * * *   

|-----------------------------------------------------------------| 
|-----------------------------------------------------------------| 
|-10101010-9999-9--10101010-999-9-9--10101010-9999-9--9999-7777-7-| 
|-x-x-x-x--xxxx-x--x-x-x-x--xxx-x-x--x-x-x-x--xxxx-x--xxxx-xxxx-x-|x2 
|-8-8-8-8--7777-7--8-8-8-8--777-7-7--8-8-8-8--7777-7--7777-5555-5-| 
|-----------------------------------------------------------------| 

|----------------------0----------| 
|------10p8--13--------6----------| 
|-9h10----------10/9---5----------| 
|------------------------0-0-0--2-| 
|------------------------0-0-0--2-| 
|------------------------0-0-0--2-| 
                         * * * 
|------------------------------------------------------------------------------------| 
|------------------------------------------------------------------------------------| 
|------------------------------------------------------------------------------------| 
|------------------------------------------------------------------------------------| 
|-00-00--0000--00-0000--0000--000-00-000-000--00-000-0000----000-000--00-000--0000-0-| 
|-00-00--0000--00-0000--0000--000-00-000-000--00-000-0000-7/-000-000--00-000--0000-0-| 
  ** **  ****  ** ****  ****  *** ** *** ***  ** *** ****    *** ***  ** ***  **** * 

|--------------------------------------------------| 
|-101010101010101010101010101010108888888888888888-| 
|-9-9-9-9-9-9-9-9-9-9-9-9-9-9-9-9-9999999999999999-| 
|-7-7-7-7-7-7-7-7-7-7-7-7-7-7-7-7-7777777777777777-| 
|--------------------------------------------------| 
|--------------------------------------------------| 

|------------------------------------|------| 
|------10p8--13-----------10p8--13---|------| 
|-9h10----------10---9h10----------9-|-/5\7-|Do that slide on 
|------------------------------------|------|the last time 
|------------------------------------|------| 
|------------------------------------|------| 
		  

auto scroll beats size up size down change color hide chords drawings
tab show chords e-chords YouTube Clip e-chords hide all tabs e-chords go to top tab

share