Cory Wells

End Of A Good Thing

Cory Wells

tabs nolevel nolevel

by  EDUCASTILHO

save to print version add songbook text version e-mail correct tuner
chordsukulelecavacokeyboardtabbassdrumsharmonicaflute Guitar Pro
close

there isn't a video lesson for this song

chords

End Of A Good Thing

	  		Intro  
e|---------------------------------------------------------------------------| 
B|---------------------------------------------------------------------------| 
G|--7(let ring)-----7(let ring)-----7(let ring)-----7(let ring)--------------| 
D|--5---4---4---4---5---4---4---4---5---4---4---4---5---0---0---0------------| 
A|---------------------------------------------------------------------------| 
E|7---7---7---7---7---7---7---7---0---0---0---0---3---3---3---3--------------| 

Verse  
e|------0---------------0---------------2---------------0--------------------| 
B|--7-------7-------7-------7-------3-------3-------3-------3----------------| 
G|--------------0---------------0---------------0---------------0------------| 
D|---------------------------------------------------------------------------| 
A|---------------------------------------------------------------------------| 
E|7---7---7---7---7---7---7---7---0---0---0---0---3---3---3---3--------------| 

e|---------------------------------------------------------------------------| 
B|7--------5----2----3(he plays this last chord only after the 2nd verse)----| 
G|---------------------------------------------------------------------------| 
D|---------------------------------------------------------------------------| 
A|---------------------------------------------------------------------------| 
E|7--------0----2----3-------------------------------------------------------| 

Chorus  
*These are the chords(in order), you can see/hear the ryhtym and changes in the music video 
e|x--x--|--x------x--|--x------x--|--x------x--------------------------------| 
B|3--3--|--10-----10-|--7------7--|--5------5--------------------------------| 
G|2--0--|--0--or--x--|--0--or--x--|--x--or--x--------------------------------| 
D|0--0--|--0------9--|--0------7--|--x------4--------------------------------| 
A|x--x--|--x------x--|--x------x--|--x------x--------------------------------| 
E|3--3--|--7------7--|--5------5--|--2------2--------------------------------| 

Bridge  
e|3----x----3----0---------------------------------------------------------------| 
B|3----3----3----0---------------------------------------------------------------| 
G|0----x----0----6---------------------------------------------------------------| 
D|2----2----0----7---------------------------------------------------------------| 
A|2----x----2----7(0)can either play 7th fret or leave open, both sound fine---| 
E|0----2----3----0---------------------------------------------------------------| 


  

************************************ 

| x  Dead note 
  

************************************ 
		  

See also:

tabs Deep Purple - Deep Purple - Smoke On The Water tabs Albert Hammond Jr - Miss Myrtle tabs Deep Purple - The Unwritten Law tabs Deep Purple - Pictures of Home tabs Deep Purple - Space Truckin tabs Deep Purple - Rat Bat Blues
e-chords

Other versions:

tabs Cory Wells - End Of A Good Thing
auto scroll beats size up size down change color hide chords drawings
tab show chords e-chords YouTube Clip e-chords hide all tabs e-chords go to top tab

share with facebook