Conor Maynard

home > Conor Maynard

Starships Tab

Conor Maynard

Difficulty: BeginnerBeginner

by tercmoraes

tuner correct add songbook print version text version save to e-mail
chordsukulelecavacokeyboardtabbassdrumsharmonicsflute Guitar Pro
chords

Starships

  		


e|-----------------------------------2-----------3---------------------------| 
B|---------------3---------------3-----------1---------------3---------------| 
G|-----------0-------0-------0-----------2---------------0-------0-----------| 
D|-------0---------------0-----------0---------------2-----------------------| 
A|-----------------------------------------------3---------------------------| 
E|---3-----------------------------------------------------------------------| 

e|---------------------------------------------------------------------------| 
B|-------------------3-------------------------------------------------------| 
G|---------------0-------2(h)-----------0---0--------------------------------| 
D|-----------0------------------0---------------0----------------------------| 
A|-------2----------------------0---2---2---3-------2(h)---------------------| 
E|---0-----------------------------------------------------------------------| 


There is a small riff where you can throw in twinkle twinkle little star... 

e|---------------------------------------------------------------------------| 
B|-------------------3-------------------------------------------------------| 
G|---------------0-------2(h)------------------------------------------------| 
D|-----------0------------------0---0---0---0---0---0---0--------------------| 
A|-------2----------------------3---3---2---2---0----------------------------| 
E|---0----------------------------------------------2---3--------------------| 
	  

Search Paypal
auto scroll beats size up size down change color hide chords drawings
tab show chords e-chords YouTube Clip e-chords hide all tabs e-chords go to top tab