save to print version add songbook text version e-mail correct tuner
chordsukulelecavacokeyboardtabbassdrumsharmonicaflute Guitar Pro
close

there isn't a video lesson for this song

chords

Jorjão

	  		SOLO (2X)  

E-------------------------------------------------- 
B-----------------11---11-10-9---9---9-8-7-11-9-8-- 
G-----8--8-9-11-11---11--------9---9--------------- 
D-9-9--9------------------------------------------- 
A-------------------------------------------------- 
E-------------------------------------------------- 

E-------------------------------------------------- 
B-------------------------------------------------- 
G-11-9-8------------------------------------------- 
D--------9----------------------------------------- 
A-------------------------------------------------- 
E-------------------------------------------------- 


		  

See also:

tabs Cássia Eller - Malandragem (Acoustic) tabs Capital Inicial - Natasha tabs Paralamas do Sucesso - Alagados tabs Legião Urbana - Índios tabs Legião Urbana - Ainda É Cedo tabs Engenheiros do Hawaii - Infinita Highway
e-chords

Other versions:

tabs Confusão Mental - Jorjão
auto scroll beats size up size down change color hide chords drawings
tab show chords e-chords YouTube Clip e-chords hide all tabs e-chords go to top tab

share